Dee. [instrumental]
В оригинале играется на двух гитарах, поэтому трудновато «прыгать» скажем с 5го лада на 1й. В идеале пока один доигрывает на 5м ладу, другой уже начинает на первом. 


/поехали! Вначале все просто: зажимаешь на 7ладу аккорд С (как на первом, только с использованием маленького баре (от 3ст. до 1ст.)) Теперь, добрались до странного и непонятного 7f. Объясняю: так я обозначил флажалет (тот кто с этим явлением сталкивался меня поймет), т.е. кладешь палец левой руки на струны так, чтоб он (палец) был над порожком (такая палочка между ладами) ну и проводишь по струнам правой рукой. Звук получается такой «свистящий». трры-ы-ынь /


|--7-----7---5—-7f--|--7---7----10---10-----------12-12--|
|-------8----0—-7f--|---7---7-----7----7-------10~14-14—-|
|------7--------7f--|----7---------7----------9----------|
|-----9------0—-7f--|--9---9----9----9----9~11-----------|
|--10----------------------------------------|
---------------------------------|

/тут вроде все понятно/

|--7-----7---5-----3---3-1-------0-----0--0-------------0-----|
|-------8------------2------5-3--0--0------3-2--3-3---3—--3---|
|------7-------------------------0-------------------2-2------|
|-----9------4-----2-----0------------------------4-----------|
|--10-----------------------4-2-----------0-------------------|
---------------------3------------------2---------|

/так, что дальше? 5_7_5 – обычный форшлаг. 12f – то же, что и на 7м ладу, 
только порожек между 12м и 13м ладом/

|--5_7_5---2------0-2-3--------3-2--2--0---0--------12f----|
|--7---------0------------0---------0----3---2--3---12f----|
2-2------------0-0------0--------2------12f----|
|----------1-------------2--2----------------2------12f----|
---2-------------------------------------------|
------3-2-0-------------3----------------------|

/вот здесь, если есть возможность и умение лучше сыграть пассаж. 
А если нет, то попытаться сыграть обыкновенно, но очень быстро/

----------------|
----------------|
|--2_4_2_0------------------|
|---------4_2_0-------4-----|
---4_2_0--------|
----------------|

|--2-3-5_7_5---------0-----------|-2-3-5-7_9_7-------------|
|--3-5-7-------3-----------------|-3-5-7-8------2---3------|
-------0---------------------------|
-----0-------0------------2--------|
---2--------------------0----------|
-----------------------------------|

/тут (в первом такте) можно сделать так называемые пул-оффы(p) на первой струне/

|-5-3-3-2-2-0--2-0---0-|----0----------------------------7--5--5---3---7f-----------||
-------3---|--3---2-0-2-3-2--3---3-------------------------7f-----------||
-----------------------2-----------------------7f-----------||
|-0----------------------------------0---------------------7f-----------||
---4-------|--2-----------0------------5p0---------4--------------------||
---------------------2-----------0--------------------------||

/вот и все./


Текст, аккорды и табулатура для песни "Dee", исполняет "Ozzy Osbourne".
Используемые в песне аккорды можно найти в разделе Как брать аккорды. Аккорды для шестиструнной гитары. Другие песни можно найти на нашем сайте, воспользовавшись алфавитным указателем вверху страницы.


 
Ошибка в тексте? Выделите ошибку и нажмите Ctrl+Enter