Ozma
Immigration Song
Tabbed by Jason the Great ([email protected])

Tuning: 1/2 step down

/ = legato slide up
 = legato slide down
h = hammer on to the next note from the previous note
p = pull off to the next note from the previous note
~ = vibaro off the last note picked
14t12(14) = trill (rapidly hammer on and pull off between the two specified notes)
            end on the note specified in parenthesees

MAIN VERSE RIFF (play this where i specify to play the main riff)

Gb|-----------------------------|
Db|-----------------------------|
Ab|-3-----3-3---3/5---2-----2-0-|
Eb|-----------------------------|

INTRO

Gb|-------------------14/16-------------------14/16-16/19-16h17p16p14-12-119/11--|
Db|-171612-171612-------171612-171612--------------------------------------|
Ab|--------------------------------------------------------------------------------|
Eb|--------------------------------------------------------------------------------|

Gb|---------------------------------------------------------------------|
Db|-----------------------------------------------------------------7-9-|
Ab|-3-----3-3---3/5---2-----2-0-------3-----3-3---3/5---2-----2-0-------|
Eb|---------------------------------------------------------------------|

Gb|--------------------------------9-11---------------------------------|
Db|-10----10-10---12---9-12-10-9-7------10----10-10---10h12---9-----9-7-|
Ab|---------------------------------------------------------------------|
Eb|---------------------------------------------------------------------|

FIRSE VERSE

(no bass except this, which doubles the vocal melody)

Gb|-12--12--12---12--12--12--11--12/16-|
Db|------------------------------------|
Ab|------------------------------------|
Eb|------------------------------------|
    seat backs up no tray tables down--

Gb|-19--19--19-17h19-17-16---17/16---12-|
Db|-------------------------------------|
Ab|-------------------------------------|
Eb|-------------------------------------|
    no turning back- to this country town

PRE CHORUS

Gb|---------------------------------------------------------------------|
Db|---------------------------------------------------------------------|
Ab|-3-----3-3---3/5---2-----2-0-------3-----3-3---3/5---2-----2-0-------|
Eb|---------------------------------------------------------------------|

Gb|--------------------------------------------------------------------------|
Db|-10-12-14---14/17-16-14h16p14/-9-10-12-7-(7)-----------------------------|
Ab|----------------------------------------------3-----3-3---3/5---2-----2-0-|
Eb|--------------------------------------------------------------------------|

FIRST CHORUS

Gb|----------------------------------------------------------|
Db|-5---5---5-5-5--2---2---2-2-2-2---5---5---5-7-9-12-12h14-|
Ab|----------------------------------------------------------|
Eb|----------------------------------------------------------|

Gb|-----------------------------------------------------------------|
Db|-5---5---5---5---2---2---2-2-2-2---5---5---5-7-9-12-12h14t12(14)-|
Ab|-----------------------------------------------------------------|
Eb|-----------------------------------------------------------------|

GUITAR SOLO

Gb|-------------------------------------------------------------------|
Db|-------------------------------------------------------------------|
Ab|-3---3---3---3/5---2-----2-0---0-3-----3-3---3/5---2-2-2-2-0-0-0-0-|
Eb|-------------------------------------------------------------------|

Gb|-----------------------------------------------|
Db|-10-10-10-10p9-10-12~----9---9---9-9-7-----7-|
Ab|-----------------------------------------------|
Eb|-----------------------------------------------|

Gb|---------------------------------------|
Db|---------------------------------------|
Ab|-3-----------3/5---2-2-2-2-0-0-0-0-(3)-|
Eb|---------------------------------------|

SECOND VERSE

(listen for when main riff enters, and repeat until the variation, which is as follows)

Gb|----------------------------------9-9/12-------------------------------------|
Db|-----------------5/9---12-10-9-7---7-----10-----10-10---10/12---9---9-7---7-|
Ab|-3-----3-3---3/5-------------------------------------------------------------|
Eb|-----------------------------------------------------------------------------|

SECOND CHORUS

Gb|-----------------------------------------------------------------|
Db|-5---5---5---5---2---2---2-2-2-2---5---5---5-7-9-12-14-14t12(14)-|
Ab|-----------------------------------------------------------------|
Eb|-----------------------------------------------------------------|

Gb|------------------------------------------------------------|
Db|-5-5-5-5-5-5-5-5-2-2-2-2-2-2-2-2-5-5-5-5-5-7-9-12-14t12(14)-|
Ab|------------------------------------------------------------|
Eb|------------------------------------------------------------|

THIRD VERSE

(main riff without variation)

BRIDGE

Gb|---------------|------19-|-----------------|---12/19-|---------------|---------19-|
Db|---------------|---17----|-----------------|---------|---------------|-17---17----|
Ab|---------------|---------|-----------------|---------|---------------|------------|
Eb|-3---3---3---3-|---------|-3---3---3-3-3-3-|---------|-3---3-----3-3-|------------|

                   keyboard arranged for bass
Gb|---------------|-------------------17h9-19b20r19-|
Db|---------------|-17----17----17h19---------------|
Ab|---------------|----17----17---------------------|
Eb|-3-3-3-3-3-3-3-|---------------------------------|

OUTRO

Gb|-----------------------------------------------------------------|
Db|-----------------------------------------------------------------|
Ab|-3-3-3-3-3-3-5-5-2-2-2-2-0-0-0-0-3-3-3-3-3-3-5-5-2-2-2-2-0-0-0-0-|
Eb|-----------------------------------------------------------------|

Gb|---------------------------------7h9-9-9-9h11-11-11-11-11-11-11-11/14-14/19-17-19p17-19b20-|
Db|-------------------------------------------------------------------------------------------|
Ab|-3-3-3-3-3-3-5-5-2-2-2-2-0-0-0-0-----------------------------------------------------------|
Eb|-------------------------------------------------------------------------------------------|

Gb|-----------------------------------------------------------------|
Db|-----------------------------------------------------------------|
Ab|-3-3-3-3-3-3-5-5-2-2-2-2-0-0-0-0-3-3-3-3-3-3-5-5-2-2-2-2-0-0-0-0-|
Eb|-----------------------------------------------------------------|

Gb|-----------------------------------------------------------------|
Db|-----------------------------------------------------------------|
Ab|-3-3-3-3-3-3-5-5-2-2-2-2-0-0-0-0-3-3-3-3-3-3-5-5-2-2-2-2-0-0-0-0-|
Eb|-----------------------------------------------------------------|

Gb|-----------------------------------------------------------------|---|
Db|-----------------------------------------------------------------|---|
Ab|-3-----------5---2-------0-------3-----------5---2-------0-------|-0-|
Eb|-----------------------------------------------------------------|---|


Текст, аккорды и табулатура для песни "Immigration Song", исполняет "Ozma".
Используемые в песне аккорды можно найти в разделе Как брать аккорды. Аккорды для шестиструнной гитары. Другие песни можно найти на нашем сайте, воспользовавшись алфавитным указателем вверху страницы.


 
Ошибка в тексте? Выделите ошибку и нажмите Ctrl+Enter