Ozma
Iceland
Tabbed By Jason the Great ([email protected])

Tuning: 1/2 step down

INTRO

Gb|---|
Db|---|
Ab|---|
Eb|-0-|

Gb|-----------------------------------------------------------------|
Db|-----------------------------------------------------------------|
Ab|-----------------2-2-2-2-2-2-2-2-5-5-5-5-5-5-5-5-7-7-7-7-7-7-7-7-|x2
Eb|-2-2-2-2-2-2-2-2-------------------------------------------------|

FIRST VERSE

Gb|-----------------------------------------------------------------|
Db|-----------------------------------------------------------------|
Ab|-9-9-9-9-9-9-9-9-0-0-0-0-0-0-0-0-2-2-2-2-2-4-2-0-----------------|
Eb|-------------------------------------------------0-0-0-0-0-0-0-0-|

Gb|-----------------------------------------------------------------|
Db|-----------------------------------------------------------------|
Ab|-----------------0-0-0-0-0-0-0-0-2-2-2-2-2-2-2-2-7-7-7-7-7-7-7-7-|
Eb|-2-2-2-2-2-2-2-2-------------------------------------------------|

Gb|-----------------------------------------------------------------|
Db|-----------------------------------------------------------------|
Ab|-----------------0-0-0-0-0-0-0-0-2-2-2-2-2-2-2-2-----------------|
Eb|-2-2-2-2-2-2-2-2---------------------------------0-0-0-0-0-0-0-0-|

Gb|-----------------------------------------------------------------|
Db|-----------------------------------------------------------------|
Ab|-----------------0-0-0-0-0-0-0-0-2-2-2-2-2-2-2-2-7-7-7-7-7-7-7-7-|
Eb|-2-2-2-2-2-2-2-2-------------------------------------------------|

FIRST PRECHORUS

Gb|-----------------------------------------------------------------|
Db|-----------------------------------------------------------------|
Ab|-9-9-9-9-9-9-9-9-2-2-2-2-2-2-2-2-5-5-5-5-5-5-5-5-----------------|
Eb|-------------------------------------------------0-0-0-0-0-0-0-0-|

Gb|-----------------------------------------------------------------|
Db|-----------------------------------------------------------------|
Ab|-----------------2-2-2-2-2-2-2-2-5-5-5-5-5-5-5-5-7-7-7-7-7-7-7-7-|
Eb|-2-2-2-2-2-2-2-2-------------------------------------------------|

FIRST CHORUS

Gb|-----------------------------------------------------------------|
Db|-----------------------------------------------------------------|
Ab|-0---0---0-0-0-0-4---4---4-4-4-4-5---5---5-5-5-5-----------------|
Eb|-------------------------------------------------0---0---0-0-0-0-|

Gb|-----------------------------------------------------------------|
Db|-----------------------------------------------------------------|
Ab|-0---0---0-0-0-0-4---4---4-4-4-4-5---5---5-5-5-5-7-7-7-7-7-7-7-7-|
Eb|-----------------------------------------------------------------|

INTRO TO VERSE 2

Gb|-----------------------------------------------------------------|
Db|-----------------------------------------------------------------|
Ab|-----------------2-2-2-2-2-2-2-2-5-5-5-5-5-5-5-5-7-7-7-7-7-7-7-7-|x2
Eb|-2-2-2-2-2-2-2-2-------------------------------------------------|

SECOND VERSE

Gb|-----------------------------------------------------------------|
Db|-----------------------------------------------------------------|
Ab|-9-9-9-9-9-9-9-9-12121212121212121414141414141414----------------|
Eb|-------------------------------------------------0-0-0-0-0-0-0-0-|

Gb|-----------------------------------------------------------------|
Db|-----------------------------------------------------------------|
Ab|-----------------0-0-0-0-0-0-0-0-2-2-2-2-2-2-2-2-7-7-7-7-7-7-7-7-|
Eb|-2-2-2-2-2-2-2-2-------------------------------------------------|

SECOND PRECHORUS

Gb|-----------------------------------------------------------------|
Db|-----------------------------------------------------------------|
Ab|-9-9-9-9-9-9-9-9-2-2-2-2-2-2-2-2-5-5-5-5-5-5-5-5-7-7-7-7-7-7-7-7-|
Eb|-----------------------------------------------------------------|

Gb|-----------------------------------------------------------------|
Db|-----------------------------------------------------------------|
Ab|-9-9-9-9-9-9-9-9-141414141414141417171717171717171919191919191919|
Eb|-----------------------------------------------------------------|

SECOND CHORUS

Gb|-----------------------------------------------------------------|
Db|-----------------------------------------------------------------|
Ab|-0---0---0-0-0-0-4---4---4-4-4-4-5---5---5-5-5-5-----------------|
Eb|-------------------------------------------------0---0---0-0-0-0-|

Gb|-----------------------------------------------------------------|
Db|-----------------------------------------------------------------|
Ab|-0---0---0-0-0-0-4---4---4-4-4-4-5---5---5-5-5-5-7-7-7-7-7-7-7-7-|
Eb|-----------------------------------------------------------------|

Gb|-----------------------------------------------------------------|
Db|-----------------------------------------------------------------|
Ab|-0---0---0-0-0-0-4---4---4-4-4-4-5---5---5-5-5-5-----------------|
Eb|-------------------------------------------------0---0---0-0-0-0-|

Gb|---------------------------------------------------|
Db|---------------------------------------------------|
Ab|-0---0---0-0-0-0-4---4---4-4-4-4-5---5---5-5-5-5-7-|
Eb|---------------------------------------------------|

INSTRUMENTAL SECTION

Gb|-----------------------------------------------------------------|
Db|-----------------------------------------------------------------|
Ab|-----------------2-2-2-2-2-2-2-2-5-5-5-5-5-5-5-5-7-7-7-7-7-7-7-7-|
Eb|-2-2-2-2-2-2-2-2-------------------------------------------------|

Gb|-----------------------------------------------------------------|
Db|-----------------------------------------------------------------|
Ab|-9-9-9-9-9-9-9-9-2-2-2-2-2-2-2-2-5-5-5-5-5-5-5-5-7-7-7-7-7-7-7-7-|
Eb|-----------------------------------------------------------------|

Gb|-----------------------------------------------------------------|
Db|-----------------------------------------------------------------|
Ab|-9-9-9-9-9-9-9-9-141414141414141417171717171717171919191919191919|
Eb|-----------------------------------------------------------------|

Gb|-----------------------------------------------------------------|
Db|-----------------------------------------------------------------|
Ab|-----------------2-2-2-2-2-2-2-2-5-5-5-5-5-5-5-5-7-7-7-7-7-7-7-7-|
Eb|-2-2-2-2-2-2-2-2-------------------------------------------------|

Gb|---|
Db|---|
Ab|-9-|
Eb|---|

Gb|-----------------------------------------------------------------|
Db|/16161616161616169-9-9-9-9-9-9-9-12121212121212121414141414141414|
Ab|-----------------------------------------------------------------|x3
Eb|-----------------------------------------------------------------|

Gb|-----------------------------------------------------------------|
Db|-16161616161616169-9-9-9-9-9-9-9-1212121212121212----------------|
Ab|-----------------------------------------------------------------|
Eb|-------------------------------------------------0-0-0-0-0-0-0-0-|

BRIDGE

Gb|-----------------------------------------------------|
Db|-----------------------------------------------------|
Ab|-12---12---16---16---17---17-------------------------|x2
Eb|------------------------------0--0--0--0--0--0--0--0-|

OUTRO

Gb|-----------------------------------------------------------------|
Db|-----------------------------------------------------------------|
Ab|-9-9-9-9-9-9-9-9-2-2-2-2-2-2-2-2-5-5-5-5-5-5-5-5-7-7-7-7-7-7-7-7-|x2
Eb|-----------------------------------------------------------------|

Gb|-----------------------------------------------------------------|
Db|-----------------------------------------------------------------|
Ab|-9-9-9-9-9-9-9-9-141414141414141417171717171717171919191919191919|
Eb|-----------------------------------------------------------------|

Gb|-----------------------------------------------------------------|
Db|-----------------------------------------------------------------|
Ab|-----------------2-2-2-2-2-2-2-2-5-5-5-5-5-5-5-5-7-7-7-7-7-7-7-7-|
Eb|-2-2-2-2-2-2-2-2-------------------------------------------------|

Gb|---|
Db|---|
Ab|---|
Eb|-2-|


Текст, аккорды и табулатура для песни "Iceland", исполняет "Ozma".
Используемые в песне аккорды можно найти в разделе Как брать аккорды. Аккорды для шестиструнной гитары. Другие песни можно найти на нашем сайте, воспользовавшись алфавитным указателем вверху страницы.


 
Ошибка в тексте? Выделите ошибку и нажмите Ctrl+Enter