#----------------------------------PLEASE NOTE--------------------------------#
#This file is the author's own work and represents their interpretation of the#
#song. You may only use this file for private study, scholarship, or research.#
#-----------------------------------------------------------------------------#
#-- File created with Instab - http://www.pconline.com/~smcarey/instab.html --#
#-----------------------------------------------------------------------------#

Author/Artist: Ozma
Title: Flight of the Bootymaster
Album: DDD
Transcribed by: Mike Ivanco
Email: [email protected]

[email protected]-------------|
-----------------10-9-7-------10-9-7-------10-9-7-9-10------------------------|
------------------------9------------9----------------------------------------|
------------------------------------------------------------------------------|
------------------------------------------------------------------------------|
------------------------------------------------------------------------------|
 Intro (keyboard)

------------------------------------------------------------------------------|
------------------------------------------------------------------------------|
-----------4------------------------------------------------------------------|
-7-2-7-2-4-4-7----------------------------------------------------------------|
-7-2-7-2-4-2-7----------------------------------------------------------------|
-5-0-5-0-2---5----------------------------------------------------------------|
 rhythm intro

------------------------------------------------------------------------------|
------------------------------------------------------------------------------|
---6-7---------------------------------------6---4----------------------------|
-7-6-7-9-------------------------------------6-4-4-2--------------------------|
-7-4-5-9-------------------------------------4-4-2-2--------------------------|
-5-----7---------------------------------------2---0--------------------------|
 verse(wesley wilis)                   part right bfore solo (now is the end)

---------2---------------------0-2-4-5-12-12-12-12-12-12-12-12-12-12-14-------|
-----2-5---0-----2-5-3-2-0-2-3------------------------------------------------|
-2-4---------2-4--------------------------------------------------------------|
------------------------------------------------------------------------------|
------------------------------------------------------------------------------|
------------------------------------------------------------------------------|
  solo

-------------12-----------------9-7----14-12----------------------------------|
-12-10-12-14----14-12-10-7-9-10-----10-------12-------------------------------|
------------------------------------------------12----------------------------|
------------------------------------------------------------------------------|
------------------------------------------------------------------------------|
------------------------------------------------------------------------------|
   solo

------------------------------------------------------------------------------|
------------------------------------------------------------------------------|
---7-------7------------------------------------------------------------------|
-7-7-4-2-7-7-4----------------------------------------------------------------|
-7-5-4-2-7-5-4----------------------------------------------------------------|
-5---2-0-5---2----------------------------------------------------------------|
 rhythm for solo


Текст, аккорды и табулатура для песни "Flight Of The Bootymaster", исполняет "Ozma".
Используемые в песне аккорды можно найти в разделе Как брать аккорды. Аккорды для шестиструнной гитары. Другие песни можно найти на нашем сайте, воспользовавшись алфавитным указателем вверху страницы.


 
Ошибка в тексте? Выделите ошибку и нажмите Ctrl+Enter