Ozma
Domino Effect
Tabbed by Jason the Great ([email protected])

Tuning: 1/2 step down

INTRO

Gb|-----------------------------------------------------------------|
Db|-----------------------------------------------------------------|
Ab|-0-0-0-0-0-0-0-0-2-2-2-2-2-2-2-2---------------------------------|
Eb|---------------------------------0-0-0-0-0-0-0-0-5-5-5-5-4-4-4-4-|

Gb|-------------------------------------------------------------|
Db|-------------------------------------------------------------|
Ab|---------------------------------7-7-7-7-7-7-7-7-------------|
Eb|-2-2-2-2-2-2-2-2-0-0-0-0-0-0-0-7-----------------5-5-5-5-5-0-|

Gb|-----------------------------------------------------------------|
Db|-----------------------------------------------------------------|
Ab|-0-0-0-0-0-0-0-0-2-2-2-2-2-2-2-2-7-7-7-7-7-7-7-7-----------------|
Eb|-------------------------------------------------5-5-7-5-4-4-4-4-|

Gb|-----------------------------------------------------------------|
Db|-----------------------------------------------------------------|
Ab|---------------------------------7-7-7-7-------------------------|
Eb|-2-2-2-2-2-2-2-2-0-0-0-0-7-7-7-7---------7-7-7-7-5-5-5-5-5-5-5-5-|

Gb|-----------------------------------------------------------------|
Db|-----------------------------------------------------------------|
Ab|-5-5-5-5-5-5-5-5-7-7-7-7-7-7-7-7-4-4-4-4-4-4-4-4-9-9-9-9-9-9-9-9-|
Eb|-----------------------------------------------------------------|

Gb|-----------------------------------------------------------------|
Db|-----------------------------------------9-9-7-7-9---------------|
Ab|-5-5-5-5-5-5-5-5-5-5-5-5-5-5-5-5-7-7-7-7-7-7-7-7-7-7-7-7-7-7-7-7-|
Eb|-----------------------------------------------------------------|

Gb|-----------------------------------------------------------------|
Db|-----------------------------------------------------------------|
Ab|-4-4-4-4-4-4-4-4-4-4-4-4-7-7-7-7-9-9-9-9-9-9-9-9-9-9-9-9-7-7-7-7-|
Eb|-----------------------------------------------------------------|

Gb|-----------------------------------|
Db|-----------------------------------|
Ab|-5-5-5-5-4-4-4-4-2-2-2-2-0-0-0-0---|
Eb|---------------------------------0-|

FIRST VERSE

Gb|-----------------------------------------------------------------|
Db|-----------------------------------------------------------------|
Ab|-0-0-0-0-0-0-0-0-2-2-2-2-2-2-2-2---------------------------------|
Eb|---------------------------------0-0-0-0-0-0-0-0-5-5-5-5-4-4-4-4-|

Gb|-------------------------------------------------------------|
Db|---------4-4-4-4---------------------------------------------|
Ab|---------------------------------7-7-7-7---------------------|
Eb|-2-2-2-2---------0-0-0-0-7-7-7-7---------7-7-7-7-5-5-5-5-5-0-|

Gb|-----------------------------------------------------------------|
Db|-----------------------------------------------------------------|
Ab|-0-0-0-0-0-0-0-0-2-2-2-2-2-2-2-2-7-7-7-7-7-5-4-4-----------------|
Eb|-------------------------------------------------5-5-5-5-4-4-4-4-|

Gb|-----------------------------------------------------------------|
Db|-----------------------------------------------------------------|
Ab|---------------------------------7-7-7-7-------------------------|
Eb|-2-2-2-2-2-2-2-2-0-0-0-0-7-7-7-7---------7-7-7-7-5-5-5-5-5-5-5-5-|

Gb|-----------------------------------------------------------------|
Db|-----------------------------------------------------------------|
Ab|-5-5-5-5-5-5-5-5-7-7-7-7-7-7-7-7-4-4-4-4-4-4-4-4-9-9-9-9-9-9-9-9-|
Eb|-----------------------------------------------------------------|

Gb|-----------------------------------------------------------------|
Db|-----------------------------------------------------------------|
Ab|-5-5-5-5-5-5-5-5-5-5-5-5-5-5-5-5-7-7-7-7-7-7-7-7-7-7-7-7-7-7-7-7-|
Eb|-----------------------------------------------------------------|

Gb|-----------------------------------------------------------------|
Db|-----------------------------------------------------------------|
Ab|-4-4-4-4-4-4-4-4-4-4-4-4-7-7-8-8-9-9-9-9-9-9-9-9-9-9-9-9-7-7-7-7-|
Eb|-----------------------------------------------------------------|

Gb|-----------------------------------|
Db|-----------------------------------|
Ab|-5-5-5-5-4-4-4-4-2-2-2-2-0-0-0-0---|
Eb|---------------------------------0-|

INTERLUDE

Gb|-----------------------------------------------------------------|
Db|-----------------------------------------------------------------|
Ab|-0-0-0-0-0-0-0-0-2-2-2-2-2-2-2-2---------------------------------|
Eb|---------------------------------0-0-0-0-0-0-0-0-1-1-1-1-1-1-1-1-|

Gb|-------------|
Db|-------------|
Ab|-------------|
Eb|-1-1-1-1-1-4-|

SECOND VERSE

Gb|-----------------------------------------------------------------|
Db|---------------------------------------9-------------------------|
Ab|-0-0-0-0-0-0-0-0-2-2-2-2-2-2-2-2-7-7-7---7-7-7-7-----------------|
Eb|-------------------------------------------------5-5-5-5-4-4-4-4-|

Gb|-----------------------------------------------------------------|
Db|---------4-4-----------------------------------------------------|
Ab|-----4-4-----4-------------------7-7-7-7-------------------------|
Eb|-2-2-----------2-0-0-0-0-7-7-7-7---------7-7-7-7-5-5-5-5-5-5-5-5-|

Gb|-----------------------------------------------------------------|
Db|-----------------------------------------------------------------|
Ab|-5-5-5-5-5-5-5-5-7-7-7-7-7-7-7-7-4-4-4-4-4-4-4-4-9-9-9-9-9-9-9-9-|
Eb|-----------------------------------------------------------------|

Gb|-------------------------------------------------------------|
Db|-------------------------------------------------------------|
Ab|-5--5--4--2--0--------------------2-----4--2--0--------------|
Eb|----------------4--2--0-----2--4-----------------4--2--1--2--|

Gb|------------------|
Db|------------------|
Ab|-5-5-4-4--2--0----|
Eb|----------------0-|

BRIDGE

Gb|------------------------------------------------------------|
Db|------------------------------------------------------------|
Ab|-5---7---4--5-7-9---7-5--4-2-0-------------2-4--2-0---------|
Eb|-------------------------------4-2-0---2-4----------4-2-1-2-|

Gb|---------------------------|
Db|----------------------7----|
Ab|-------------5--4--2-------|
Eb|-2-4-5-4-2-0-------------0-|

THIRD VERSE/OUTRO

(no bass first time through)

Gb|-----------------------------------------------------------------|
Db|-----------------------------------------------------------------|
Ab|-0-0-0-0-0-0-0-0-2-2-2-2-2-2-2-2-7-7-7-7-7-7-7-7-8-8-8-8-8-8-8-8-|
Eb|-----------------------------------------------------------------|

Gb|-----------------------------------|
Db|-----------------------------------|
Ab|-8-8-8-8-8-10-12----8-8-8-8-8-10-3-|
Eb|-----------------------------------|


Текст, аккорды и табулатура для песни "Domino Effect", исполняет "Ozma".
Используемые в песне аккорды можно найти в разделе Как брать аккорды. Аккорды для шестиструнной гитары. Другие песни можно найти на нашем сайте, воспользовавшись алфавитным указателем вверху страницы.


 
Ошибка в тексте? Выделите ошибку и нажмите Ctrl+Enter