Ozma
Apple Trees
Tabbed by Jason The Great ([email protected])

Tuning: 1/2 step down

INTRO

keyboard (arranged for bass)
Gb|-----------------------------------------------------------------|
Db|-----------------------------------------------------------------|
Ab|-3-3-3-3-3-3-3-3-3-3-3-3-3-3-3-3-3-3-3-3-3-3-3-3-3-3-3-3-3-3-3-3-|
Eb|-----------------------------------------------------------------|

bass
Gb|-----------------------------------------------------------|
Db|-----------------------------------------------------------|
Ab|-3-3-3-3-3-3-3-3-/7-7-7-7-7-7-7-7-/10-10-10-10-10-10-10-12-|
Eb|-----------------------------------------------------------|

Gb|--------------------------|
Db|--------------------------|
Ab|-/14-14-14-14-14-14-14-14-|
Eb|--------------------------|

FIRST VERSE

keyboard
Gb|-----------------------------------------------------------------|
Db|-----------------------------------------------------------------|
Ab|-3-3-3-3-3-3-3-3---------------------------------3-3-3-3-3-3-3-3-|x2
Eb|-----------------4-4-4-4-4-4-4-4-3-3-3-3-3-3-3-3-----------------|

bass
Gb|-----------------------------------------------------------------|
Db|-----------------------------------------------------------------|
Ab|-1515151515151515--------------------------------3-3-3-3-3-3-3-3-|
Eb|-----------------4-4-4-4-4-4-4-4-3-3-3-3-3-3-3-3-----------------|

Gb|-----------------------------------------------------------------|
Db|---------------------6-----6---6---------------------------------|
Ab|-3-3-3-3-3-3-3-3---6-----6-----------------------3-3-3-3-3-3-3-3-|
Eb|-----------------4-----4-----4---3-3-3-3-3-3-3-3-----------------|

bass & keyboard
Gb|-----------------------------------------------------------------|
Db|-----------------------------------------------------------------|
Ab|-0-0-0-0-0-0-0-0---------------------------------3-3-3-3-3-3-3-3-|
Eb|-----------------4-4-4-4-4-4-4-4-3-3-3-3-3-3-3-3-----------------|

Gb|-------------------|
Db|-------------------|
Ab|-0-0-0-0-0-0-0-0---|
Eb|-----------------3-|

bass
Gb|---|
Db|---|
Ab|---|
Eb|-4-|

(about now we stop paying attention to the keyboard, all tab from
hear on is for bass)

FIRST PRECHORUS

Gb|----------------------------------------|
Db|----------------------------------------|
Ab|---------8--8-8----------3-3--3-----3---|
Eb|-5--5-5----------3--3-3---------4-4---4-|

Gb|-------------------------------------------|
Db|-------------------------------------------|
Ab|-------------------------3-3-3-3-7-7-7-7-8-|
Eb|-5--5-5-13--13-13-3--3-3-------------------|

Gb|---|
Db|---|
Ab|---|
Eb|-4-|

FIRST CHORUS

Gb|-------------------------------------------------|
Db|-------------------7-5--5-5-5--0-----------------|
Ab|----------5--5-5-5---------------3-3-3-3-2-2-2-2-|
Eb|-5--5-5-5----------------------------------------|

Gb|----------------------------------------------|
Db|-----------------------5-5--5-5-5-------------|
Ab|-0-0--0-0-0-5-5--5-5-5------------3-3-3-3-3---|
Eb|--------------------------------------------4-|

SECOND VERSE

Gb|-----------------------------------------------------------------|
Db|-----------------------------------------------------0-0-2-2-5-5-|
Ab|-3-3-3-3-3-3-3-3---------------------------------3-3-------------|
Eb|-----------------4-4-4-4-4-4-4-4-3-3-3-3-3-3-3-3-----------------|

Gb|-----------------------------------------------------------------|
Db|---------------------6-----6---6---------------------------------|
Ab|-3-3-3-3-3-3-3-3---6-----6-----------------------3-3-3-3-3-3-3-3-|
Eb|-----------------4-----4-----4---3-3-3-3-3-3-3-3-----------------|

Gb|-----------------------------------------------------------------|
Db|-----------------------------------------------------------------|
Ab|-0---0---0---0-----------------------------------3---3---3---3---|
Eb|-----------------4---4---4---4---3---3---3---3-------------------|

Gb|-------------------|
Db|-------------------|
Ab|-0-0-0-0-0-0-0-0---|
Eb|-----------------3-|

Gb|---|
Db|---|
Ab|---|
Eb|-4-|

SECOND PRECHORUS

Gb|----------------------------------------|
Db|--------------------------------------0-|
Ab|---------8--8-8----------3-3--3-----3---|
Eb|-5--5-5----------3--3-3---------4-4-----|

Gb|-------------------------------------------|
Db|-------------------------------------------|
Ab|-------------------------3-3-3-3-7-7-7-7-8-|
Eb|-5--5-5--1--1-1--3--3-3--------------------|

Gb|--------------|
Db|--------------|
Ab|-8--7-8-10-12-|
Eb|--------------|

SECOND CHORUS

Gb|-------------------------------------------------------|
Db|---------------------------------------------------0-2-|
Ab|-12--12-12-12-5-5--5-5-5--0----------0-3-3-3-3-2-2-----|
Eb|----------------------------3--3-3-3-------------------|

Gb|----------------------------------------------|
Db|----------------------------------------------|
Ab|-0-0--0-0-0-5-5--5-5-5------------3-3-3-3-3---|
Eb|-----------------------3-3--3-3-3-----------4-|

GUITAR SOLO

Gb|-----------------------------------------------------|
Db|-----------------------------------------------------|
Ab|----------------------------------------3--3-----3---|
Eb|-5--5-5-5-5-5-1--1-1-1-1-1-3--3-3-3-3-3------4-4---4-|

Gb|-----------------------------------------------------------|
Db|-----------------------------------------------------------|
Ab|-------------------------------------------3-3-3-3-7-7-7-7-|
Eb|-5--5-5-5-5-5--13-13-13-13-13-13-3-3-3-3-3-----------------|

Gb|---------------------------------------------------------|
Db|---------------------------------------------------------|
Ab|-8-8-8-8-8-8-8-8-10-10-10-10-10-10-10-10-3-3-3-3-3-3-3-0-|
Eb|---------------------------------------------------------|

Gb|-------------------------------------------------|
Db|-------------------------------------------------|
Ab|-7-7-7-7-7-7-5-7-8-8-8-8-8-8-8-8-----------------|
Eb|---------------------------------3-3-3-3-3-3-3-3-|

Gb|-------------------------------|
Db|-------------------------------|
Ab|-3-3-3-------------------------|
Eb|-------4--5-5-5-0--1-1-1-1-1-3-|

THIRD PRECHORUS

Gb|----------------------------------------|
Db|----------------------------------------|
Ab|---------8--8-8----------3-3--3---------|
Eb|-5--5-5----------3--3-3---------4-4-4-4-|

Gb|-------------------------------------------------------|
Db|-----------------------------5-------------------------|
Ab|-----------------------------------0-3-3-3-3-2-2-2-2-0-|
Eb|-5-5-5-5-5-5-1-1-1-1-1-1-3-3---3-3---------------------|

THIRD CHORUS

(bass stops, song gets quiet)

Gb|----------------------------------------------------------------|
Db|-(5)----5-----4-------------------------------------------------|
Ab|----3-3---2-2---0-0-0-0-0-0-0-0-5-5-5-5-5-5-5-5-----------------|
Eb|------------------------------------------------3-3-3-3-3-3-3-3-|

Gb|-----------------|
Db|---------0-0-2-5-|
Ab|-3-3-3-3---------|
Eb|-----------------|

Gb|-------------------------------------------------------|
Db|-------------------------------------------------------|
Ab|-0-0-0-0-0-0-5-5-5-5-5-5-0-----------0-3-3-3-3-2-2-2-2-|
Eb|---------------------------3-3-3-3-3-------------------|

Gb|-----------------------------------------------------------|
Db|-----------------------------------------------------------|
Ab|-0-0-0-0-0-3-5-5-5-5-5-0-----------------3-3-3-3-7-7-7-7-8-|
Eb|-------------------------3-3-3-3-3-3-3-3-------------------|

OUTRO

Gb|-----------------------------------------|
Db|-----------------------------------------|
Ab|-8--7-8-10--12--10-12-14--15--14-15-17-0-|
Eb|-----------------------------------------|


Текст, аккорды и табулатура для песни "Apple Trees", исполняет "Ozma".
Используемые в песне аккорды можно найти в разделе Как брать аккорды. Аккорды для шестиструнной гитары. Другие песни можно найти на нашем сайте, воспользовавшись алфавитным указателем вверху страницы.


 
Ошибка в тексте? Выделите ошибку и нажмите Ctrl+Enter