Wrecking Crew
Overkill

                                                                
E||------------------------------|------------------------------|
B||------------------------------|------------------------------|
G||------------------------------|------------------------------|
D||--9--9-9---9----------5p0-----|--9--9-9----------------------|
A||--7--7-7---7--5p0---------5p0-|--7--7-7---0--2p0p3p0-2p0-----|
E||--0--0-0---0------5p0---------|--0--0-0------------------3p0-|


                               
------------------------------|
------------------------------|
------------------------------|
--9--9-9---9----------5p0-----|
--7--7-7---7--5p0---------5p0-|
--0--0-0---0------5p0---------|


                                                   
--------------------------------------------------|
--------------------------------------------------|
--3p2p0-------3p2p0-------3p2p0-------3p2p0-------|
--------3p2p0-------3p2p0-------3p2p0-------3p2p0-|
--------------------------------------------------|
--------------------------------------------------|


                                                                 
--------------------------------|-------------------------------|
--------------------------------|-------------------------------|
--------------------------------|-------------------------------|
----------9--------------9------|----------9----------9------9--|
----------7--------------7------|----------7----------7------7--|
--0-0-0-0----0-0-0-0-0-0----0-0-|--0-0-0-0----0-0-0-0----0-0----|


                                                                 
--------------------------------|-------------------------------|
--------------------------------|-------------------------------|
--------------------------------|-------------------------------|
----------9--------------9------|----------9----------9------9--|
----------7--------------7------|----------7----------7------7--|
--0-0-0-0----0-0-0-0-0-0----0-0-|--0-0-0-0----0-0-0-0----0-0----|


                                                                 
--------------------------------|-------------------------------|
--------------------------------|-------------------------------|
--------------------------------|-------------------------------|
----------9--------------9------|----------9----------9------9--|
----------7--------------7------|----------7----------7------7--|
--0-0-0-0----0-0-0-0-0-0----0-0-|--0-0-0-0----0-0-0-0----0-0----|


                                                               
--------------------------------|-----------------------------|
--------------------------------|-----------------------------|
--------------------------------|-----------------------------|
----------9--------------9------|----------9---------9-----9--|
----------7--------------7------|----------7---------7-----7--|
--0-0-0-0----0-0-0-0-0-0----0-0-|--0-0-0-0----0-0-0-----0-----|


                                                                   2x
|---------------------------------|--------------------------------||
|---------------------------------|--------------------------------||
|*--------------------------------|-------------------------------*||
|*----------9--------------9------|----------9----------9------9--*||
|-----------7--------------7------|----------7----------7------7---||
|---0-0-0-0----0-0-0-0-0-0----0-0-|--0-0-0-0----0-0-0-0----0-0-----||


                                                               
--------------------------------|-----------------------------|
--------------------------------|-----------------------------|
--------------------------------|-----------------------------|
----------9--------------9------|----------9---------9-----9--|
----------7--------------7------|----------7---------7-----7--|
--0-0-0-0----0-0-0-0-0-0----0-0-|--0-0-0-0----0-0-0-----0-----|


                                                                              
|--------------------|----------------------|--------------------------------|
|--------------------|----------------------|--------------------------------|
|*-------------------|----------------------|--------------------------------|
|*--7----------------|--5--------5---5---7--|----------9--------------9------|
|---5----------------|--3--------2---3---5--|----------7--------------7------|
|--------------------|----------------------|--0-0-0-0----0-0-0-0-0-0----0-0-|


                                3x                                        
--------------------------------||-------------------|-------------------|
--------------------------------||-------------------|-------------------|
-------------------------------*||-------------------|-------------------|
----------9----------9------9--*||-------------------|-------------------|
----------7----------7------7---||--4----------------|--5----------------|
--0-0-0-0----0-0-0-0----0-0-----||--2----------------|--3----------------|


                                                                  
---------------------|------------------|------------------------|
---------------------|------------------|------------------------|
---------------------|------------------|------------------------|
---------------------|------------------|--4---4---4--7---7---7--|
--4------------5--7--|------------------|--2---2---2--5---5---5--|
--2------------3--5--|------------------|------------------------|


                                                                           
------------------------|------------------------|------------------------|
------------------------|------------------------|------------------------|
------------------------|------------------------|------------------------|
-------------9----7--9--|--4---4---4--7---7---7--|------------------------|
--7---7---7--7----5--7--|--2---2---2--5---5---5--|--7---7---7--9----9--9--|
--5---5---5-------------|------------------------|--5---5---5--7----7--7--|


                                                                           
------------------------|------------------------|------------------------|
------------------------|------------------------|------------------------|
------------------------|------------------------|------------------------|
--4---4---4--7---7---7--|-------------9----7--9--|--4---4---4--7---7---7--|
--2---2---2--5---5---5--|--7---7---7--7----5--7--|--2---2---2--5---5---5--|
------------------------|--5---5---5-------------|------------------------|


                                                              
----------------------------|--------------------------------|
----------------------------|--------------------------------|
----------------------------|--------------------------------|
----------------------------|----------9--------------9------|
--7---7---7--9---9---9------|----------7--------------7------|
--5---5---5--7---7---7--0-0-|--0-0-0-0----0-0-0-0-0-0----0-0-|


                                                                 
-------------------------------|--------------------------------|
-------------------------------|--------------------------------|
-------------------------------|--------------------------------|
----------9----------9------9--|----------9--------------9------|
----------7----------7------7--|----------7--------------7------|
--0-0-0-0----0-0-0-0----0-0----|--0-0-0-0----0-0-0-0-0-0----0-0-|


                                                   
--3p2p0-------3p2p0-------3p2p0-------------------|
--------3p2p0-------3p2p0-------3p2p0-------------|
--------------------------------------3p2p0-------|
--------------------------------------------3p2p0-|
--------------------------------------------------|
--------------------------------------------------|


                                                                 
--------------------------------|-------------------------------|
--------------------------------|-------------------------------|
--------------------------------|-------------------------------|
----------9--------------9------|----------9----------9------9--|
----------7--------------7------|----------7----------7------7--|
--0-0-0-0----0-0-0-0-0-0----0-0-|--0-0-0-0----0-0-0-0----0-0----|


                                                               
--------------------------------|-----------------------------|
--------------------------------|-----------------------------|
--------------------------------|-----------------------------|
----------9--------------9------|----------9---------9-----9--|
----------7--------------7------|----------7---------7-----7--|
--0-0-0-0----0-0-0-0-0-0----0-0-|--0-0-0-0----0-0-0-----0-----|


                                                                              
|--------------------|----------------------|--------------------------------|
|--------------------|----------------------|--------------------------------|
|*-------------------|----------------------|--------------------------------|
|*--7----------------|--5--------5---5---7--|----------9--------------9------|
|---5----------------|--3--------2---3---5--|----------7--------------7------|
|--------------------|----------------------|--0-0-0-0----0-0-0-0-0-0----0-0-|


                                3x                                        
--------------------------------||-------------------|-------------------|
--------------------------------||-------------------|-------------------|
-------------------------------*||-------------------|-------------------|
----------9----------9------9--*||-------------------|-------------------|
----------7----------7------7---||--4----------------|--5----------------|
--0-0-0-0----0-0-0-0----0-0-----||--2----------------|--3----------------|


                                                                  
---------------------|------------------|------------------------|
---------------------|------------------|------------------------|
---------------------|------------------|------------------------|
---------------------|------------------|--4---4---4--7---7---7--|
--4------------5--7--|------------------|--2---2---2--5---5---5--|
--2------------3--5--|------------------|------------------------|


                                                                           
------------------------|------------------------|------------------------|
------------------------|------------------------|------------------------|
------------------------|------------------------|------------------------|
-------------9----7--9--|--4---4---4--7---7---7--|------------------------|
--7---7---7--7----5--7--|--2---2---2--5---5---5--|--7---7---7--9----9--9--|
--5---5---5-------------|------------------------|--5---5---5--7----7--7--|


                                                                           
------------------------|------------------------|------------------------|
------------------------|------------------------|------------------------|
------------------------|------------------------|------------------------|
--4---4---4--7---7---7--|-------------9----7--9--|--4---4---4--7---7---7--|
--2---2---2--5---5---5--|--7---7---7--7----5--7--|--2---2---2--5---5---5--|
------------------------|--5---5---5-------------|------------------------|


                                                                                
-----------------------------|------------------------|------------------------|
-----------------------------|------------------------|------------------------|
-----------------------------|-------------4---4---4--|-------------6----4--6--|
-----------------------------|--6---6---6--2---2---2--|--4---4---4--4----2--4--|
--7---7---7--4-4-4-4-3-3-3-3-|--4---4---4-------------|--2---2---2-------------|
--5---5---5------------------|------------------------|------------------------|


                                                                               
------------------------|----------------------------|------------------------|
------------------------|----------------------------|------------------------|
-------------4---4---4--|----------------------------|-------------4---4---4--|
--6---6---6--2---2---2--|--4---4---4-----------------|--6---6---6--2---2---2--|
--4---4---4-------------|--2---2---2--4-4-4-4-2-2----|--4---4---4-------------|
------------------------|-------------------------4--|------------------------|


                                                                
------------------------|------------------------|-------------|
------------------------|------------------------|-------------|
-------------6----4--6--|-------------4---4---4--|-------------|
--4---4---4--4----2--4--|--6---6---6--2---2---2--|--4---4---4--|
--2---2---2-------------|--4---4---4-------------|--2---2---2--|
------------------------|------------------------|-------------|


                                                              
------------------------------|------------------------------|
------------------------------|------------------------------|
------------------------------|------------------------------|
--9--9-9---9----------5p0-----|--9--9-9----------------------|
--7--7-7---7--5p0---------5p0-|--7--7-7---0--2p0p3p0-2p0-----|
--0--0-0---0------5p0---------|--0--0-0------------------3p0-|


                               
------------------------------|
------------------------------|
------------------------------|
--9--9-9---9----------5p0-----|
--7--7-7---7--5p0---------5p0-|
--0--0-0---0------5p0---------|


                                                   
--------------------------------------------------|
--------------------------------------------------|
--3p2p0-------3p2p0-------3p2p0-------3p2p0-------|
--------3p2p0-------3p2p0-------3p2p0-------3p2p0-|
--------------------------------------------------|
--------------------------------------------------|


                                                              
------------------------------|------------------------------|
------------------------------|------------------------------|
------------------------------|------------------------------|
--9--9-9---9----------5p0-----|--9--9-9----------------------|
--7--7-7---7--5p0---------5p0-|--7--7-7---0--2p0p3p0-2p0-----|
--0--0-0---0------5p0---------|--0--0-0------------------3p0-|


                               
------------------------------|
------------------------------|
------------------------------|
--9--9-9---9----------5p0-----|
--7--7-7---7--5p0---------5p0-|
--0--0-0---0------5p0---------|


                                                   
--------------------------------------------------|
--------------------------------------------------|
--3p2p0-------3p2p0-------3p2p0-------3p2p0-------|
--------3p2p0-------3p2p0-------3p2p0-------3p2p0-|
--------------------------------------------------|
--------------------------------------------------|


                                                   
--------------------------------------------------|
--------------------------------------------------|
--3p2p0-------3p2p0-------3p2p0-------3p2p0-------|
--------3p2p0-------3p2p0-------3p2p0-------3p2p0-|
--------------------------------------------------|
--------------------------------------------------|


                                                   
--------------------------------------------------|
--------------------------------------------------|
--4p2p0-------4p2p0-------4p2p0-------4p2p0-------|
--------4p2p0-------4p2p0-------4p2p0-------4p2p0-|
--------------------------------------------------|
--------------------------------------------------|


                                                   
--------------------------------------------------|
--------------------------------------------------|
--5p2p0-------5p2p0-------5p2p0-------5p2p0-------|
--------5p2p0-------5p2p0-------5p2p0-------5p2p0-|
--------------------------------------------------|
--------------------------------------------------|


                                                   
--------------------------5p3p0-------5p3p0-------|
--------------3p1p0-7p5p3-------5p3p0-------5p3p0-|
--------4p2p0-------------------------------------|
--4p2p0-------------------------------------------|
--------------------------------------------------|
--------------------------------------------------|


                                                   
--5p3p0-------5p3p0-------3p2p0-5p3p0-3p2p0-5p3p0-|
--------5p3p0-------5p3p0-------------------------|
--------------------------------------------------|
--------------------------------------------------|
--------------------------------------------------|
--------------------------------------------------|


                                                   
--3p2p0-------3p2p0-------3p2p0-------------------|
--------3p2p0-------3p2p0-------3p2p0-------------|
--------------------------------------4p2p0-------|
--------------------------------------------4p2p0-|
--------------------------------------------------|
--------------------------------------------------|


                                                                
------------------------------|--------------------------------|
------------------------------|--3--3--3--2-----0--0--0--1--3--|
------------------------------|--------------2-----------------|
--2p--0h2p--0-2p0h2p0h2p0h2p0-|--------------------------------|
------------------------------|--------------------------------|
------------------------------|--------------------------------|


                                                                    
----------------------------------|--------------------------------|
--------13--15--15b---------15-13-|--15p13-----15p-13--------------|
--12/14---------------------------|--------14----------14~---------|
----------------------------------|--------------------------------|
----------------------------------|--------------------------------|
----------------------------------|--------------------------------|


                                                               
--------------------------------------------12----12-14-12-14-|
-----------------------12-13-12-13-15-13-15----15-------------|
--------------14p12-14----------------------------------------|
--12/14---12--------------------------------------------------|
--------------------------------------------------------------|
--------------------------------------------------------------|


                                                                      
--14-15-17-14-15-17-12-13-15-12-13-12----12--------------------------|
--------------------------------------15----15-13-15-13-12-14p12-----|
-----------------------------------------------------------------14~-|
---------------------------------------------------------------------|
---------------------------------------------------------------------|
---------------------------------------------------------------------|


                                              
-----15h-17-20p17p15h17-19p17p15h17-20p17p15h|
---------------------------------------------|
---x-----------------------------------------|
---------------------------------------------|
---------------------------------------------|
---------------------------------------------|


                                                               
--17-19p17p15h17-20p17p15h17-19p17p15h17-20p17p15h17-19p17h---|
-----------------------------------------------------------17-|
--------------------------------------------------------------|
--------------------------------------------------------------|
--------------------------------------------------------------|
--------------------------------------------------------------|


                                                   
--20b----------------------|------3/---7/---15----|
----------17-20-20b---3----|----------------------|
---------------------------|----------------------|
---------------------------|----------------------|
---------------------------|----------------------|
---------------------------|----------------------|


                                                                           
--17-12h15h17-------17-12h15h17-12h15h17-12h15h17-12h15h17-12h15h17-12h15-|
--------------17p12-------------------------------------------------------|
--------------------------------------------------------------------------|
--------------------------------------------------------------------------|
--------------------------------------------------------------------------|
--------------------------------------------------------------------------|


                                                                           
--------------------------------------------------------------------------|
--17-12h15h17-12h15h17-12h15h17-12h15h17-12h15h17-12h15h17-12h15h17-12h15-|
--------------------------------------------------------------------------|
--------------------------------------------------------------------------|
--------------------------------------------------------------------------|
--------------------------------------------------------------------------|


                                                                           
--------------------------------------------------------------------------|
--------------------------------------------------------------------------|
--16-12h14h16-12h14h16-12h14h16-12h14-------------------------------------|
--------------------------------------16-12h14h16-12h14h16-12h14h16-12h14-|
--------------------------------------------------------------------------|
--------------------------------------------------------------------------|


                                                                           
--------------------------------|--------------------------------2h3p2p0--|
--3--3--3--2-----0--0--0--1--3--|-----------------------------2-----------|
--------------2-----------------|---------------------2p0h2h4-------------|
--------------------------------|--------------2--4h5---------------------|
--------------------------------|--------0h2h3----------------------------|
--------------------------------|--0h2h3----------------------------------|


                                          
-----------------------------2--4h5p4p2--|
-----------------------2h3h5-------------|
-----------------1h2h4p------------------|
--------------4--------------------------|
--------2h4h5----------------------------|
--2h4h5----------------------------------|


                                                          
---------------------------------------------------------|
--------------------------5h7h9-7h9h10-10h11h13-11h12h14-|
--------------------4h6h7--------------------------------|
--------------4h6h7--------------------------------------|
--------4h5h7--------------------------------------------|
--4h5h7--------------------------------------------------|


                                                                           
--11-12-14-11-12-14-12-14-16-12-14-16-13-15-17-13-15-17-14-16-18-17-19-21-|
--------------------------------------------------------------------------|
--------------------------------------------------------------------------|
--------------------------------------------------------------------------|
--------------------------------------------------------------------------|
--------------------------------------------------------------------------|


                                                                              
--22b---------------|------------------|------------------|------------------|
--------------------|------------------|------------------|------------------|
--------------------|------------------|------------------|------------------|
--------------------|------------------|------------------|------------------|
--------------------|------------------|------------------|------------------|
--------------------|------------------|------------------|------------------|


                                                                 
--------------------------------|-------------------------------|
--------------------------------|-------------------------------|
--------------------------------|-------------------------------|
----------9--------------9------|----------9----------9------9--|
----------7--------------7------|----------7----------7------7--|
--0-0-0-0----0-0-0-0-0-0----0-0-|--0-0-0-0----0-0-0-0----0-0----|


                                                               
--------------------------------|-----------------------------|
--------------------------------|-----------------------------|
--------------------------------|-----------------------------|
----------9--------------9------|----------9---------9-----9--|
----------7--------------7------|----------7---------7-----7--|
--0-0-0-0----0-0-0-0-0-0----0-0-|--0-0-0-0----0-0-0-----0-----|


                                                                              
|--------------------|----------------------|--------------------------------|
|--------------------|----------------------|--------------------------------|
|*-------------------|----------------------|--------------------------------|
|*--7----------------|--5--------5---5---7--|----------9--------------9------|
|---5----------------|--3--------2---3---5--|----------7--------------7------|
|--------------------|----------------------|--0-0-0-0----0-0-0-0-0-0----0-0-|


                                3x                                        
--------------------------------||-------------------|-------------------|
--------------------------------||-------------------|-------------------|
-------------------------------*||-------------------|-------------------|
----------9----------9------9--*||-------------------|-------------------|
----------7----------7------7---||--4----------------|--5----------------|
--0-0-0-0----0-0-0-0----0-0-----||--2----------------|--3----------------|


                                                                  
---------------------|------------------|------------------------|
---------------------|------------------|------------------------|
---------------------|------------------|------------------------|
---------------------|------------------|--4---4---4--7---7---7--|
--4------------5--7--|------------------|--2---2---2--5---5---5--|
--2------------3--5--|------------------|------------------------|


                                                                         
------------------------|------------------------|----------------------|
------------------------|------------------------|----------------------|
------------------------|------------------------|----------------------|
-------------9----7--9--|--4---4---4--7---7---7--|----------------------|
--7---7---7--7----5--7--|--2---2---2--5---5---5--|--7---7---7--9--------|
--5---5---5-------------|------------------------|--5---5---5--7--------|


                                                                           
------------------------|------------------------|------------------------|
------------------------|------------------------|------------------------|
------------------------|------------------------|------------------------|
--4---4---4--7---7---7--|-------------9----7--9--|--4---4---4--7---7---7--|
--2---2---2--5---5---5--|--7---7---7--7----5--7--|--2---2---2--5---5---5--|


Текст, аккорды и табулатура для песни "Wrecking Crew", исполняет "Over Kill".
Используемые в песне аккорды можно найти в разделе Как брать аккорды. Аккорды для шестиструнной гитары. Другие песни можно найти на нашем сайте, воспользовавшись алфавитным указателем вверху страницы.


 
Ошибка в тексте? Выделите ошибку и нажмите Ctrl+Enter