Kill at Command, by Overkill
Tabbed by: MetalMan777

                                 play twice riff 1                      
------------------------------|-----------------------------------------
------------------------------|-----------------------------------------
4--3--4--6--4--3--------------|-----------------------------------------
2--1--2--4--2--1--4--3--------|--------9--------------------------------
------------------2--1--2-----|--------7--------------------------------
------------------------0-----|-----------0--0--0--0--0--0--0--0--0-----
                                                                        

                                                                        
------------------------------------------------------------------------
------------------------------------------------------------------------
------------------------------------------------------------------------
--------------7--------9-------------------------------------------7----
---------7h8-----8--7--7--0--0--0--0--0--0--0--0--0--0--0--0--7h8-------
0--0--0-----------------------------------------------------------------
                                                                        

                                                                        
------------------------------------------------------------------------
------------------------------------------------------------------------
------------------------------------------------------------------------
------9-------------------------------------------7--------9------------
8--7--7--------------------------------------7h8-----8--7--7------------
---------0--0--0--0--0--0--0--0--0--0--0--0-------------------0--0------
                                                                        

                                                                        
------------------------------------------------------------------|-----
------------------------------------------------------------------|-----
---------------------------------------------------------2--2--2--|-----
------------------------------2--2--2--3--3--3--5--5--5-----------|-----
------------------------------------------------------------------|-----
0--0--0--0--0--0--0--0--0--0--------------------------------------|-----
                                                                        

         riff2                                                          
------|-----------------------------------------------------------------
------|-----------------------------------------------------------------
------|-----------------------------------------------------------------
2-----|-----------------------------------------------------------------
2-----|--------------------------------------5--7-----------------------
0-----|--0--0--0--0--0--0--0--0--0--0--0--0--3--5--0--0--0--0--0--0-----
                                                                        

                                                                        
------------------------------------------------------------------------
------------------------------------------------------------------------
------------------5--4--------------------------------------------------
------------------3--2--------------------------------------------------
------------------------------------------------------------5--7--------
0--0--0--0--0--0--------0--0--0--0--0--0--0--0--0--0--0--0--3--5--0-----
                                                                        

                                                                        
------------------------------------------------------------------------
------------------------------------------------------------------------
---------------------------------5--4-----------------------------------
---------------------------------3--2-------7---------------------------
---------------------------------------7h8-----8--7---------------------
0--0--0--0--0--0--0--0--0--0--0----------------------0--0--0--0--0------
                                                                        

                                                                        
------------------------------------------------------------------------
------------------------------------------------------------------------
---------------------------------------------------------------5--4-----
---------------------------------------------------------------3--2-----
---------------------5--7-----------------------------------------------
0--0--0--0--0--0--0--3--5--0--0--0--0--0--0--0--0--0--0--0--0-----------
                                                                        

                                                                        
------------------------------------------------------------------------
------------------------------------------------------------------------
------------------------------------------------------------------------
------------------------------------------------------------------------
---------------------------------------5--7-----------------------------
---0--0--0--0--0--0--0--0--0--0--0--0--3--5--0--0--0--0--0--0--0--0-----
                                                                        

                                                                        
------------------------|-----------------------------------------------
------------------------|-----------------------------------------------
------------5--4--------|-----------------------------------------------
------------3--2--5--4--|-----------------------------------------------
------------------3--2--|-----------------------------------------------
0--0--0--0--------------|-----------------------------------------------
                                                                        

riff 3 play twice                                                       
------------------------------------------------------------------------
------------------------------------------------------------------------
------------------------------------------------------------------------
------------------------------------------------------------------------
---2--2--2--2--2--2--2--2--2--2--2--2--3--3--3--3--3--3--3--3--3--3-----
------------------------------------------------------------------------
                                                                        

                                                                        
------------------------------------------------------------------------
------------------------------------------------------------------------
------------------------------------------------------------------------
------------------------------------------------------2-----------2-----
3--3-----2--2--2--2--2--2--2--2--2--2--2--2--0--0--0--0--0--0--0--0-----
------------------------------------------------------------------------
                                                                        

                                                                        
------------------------------------------------------------------------
------------------------------------------------------------------------
------------------------------------------------------------------------
------------------------------------------------------------------------
2--2--2--2--2--2--2--2--2--2--2--2--3--3--3--3--3--3--3--3--3--3--3-----
------------------------------------------------------------------------
                                                                        

                                                                        
------------------------------------------------------------|-----------
------------------------------------------------------------|-----------
------------------------------------------------------------|-----------
---------------------------------------5-----5-----2-----2--|--2--2-----
3--2--2--2--2--2--2--2--2--2--2--2--2--3-----3-----0-----0--|-----------
------------------------------------------------------------|-----------
                                                                        

                                                                        
------------------------------|-----------------------------------------
------------------------------|-----------------------------------------
---------------------2--2--2--|-----------------------------------------
2--3--3--3--5--5--5-----------|-----------------------------------------
------------------------------|-----------------------------------------
------------------------------|--0--0--0--0--0--0--0--0--0--0--0--0-----
                                                                        

                                                                        
------------------------------------------------------------------------
------------------------------------------------------------------------
------------------------------------------------------5--4--------------
------------------------------------------------------3--2--------------
5--7--------------------------------------------------------------------
3--5--------------0--0--0--0--0--0--0--0--0--0--0--0--------0--0--0-----
                                                                        

                                                                        
------------------------------------------------------------------------
------------------------------------------------------------------------
------------------------------------------------------------------------
------------------------------------------------------------------------
---------------------------5--7-----------------------------------------
0--0--0--0--0--0--0--0--0--3--5--0--0--0--0--0--0--0--0--0--0--0--0-----
                                                                        

                                                                        
------------------------------------------------------------------------
------------------------------------------------------------------------
5--4--------------------------------------------------------------------
3--2--5--4--------------------------------------------------------------
------3--2--------------------------------------5--7--------------------
------------0--0--0--0--0--0--0--0--0--0--0--0--3--5-----0--0--0--0-----
                                                                        

                                                                        
------------------------------------------------------------------------
------------------------------------------------------------------------
------------------------5--4--------------------------------------------
------------------------3--2--------------------------------------------
------------------------------------------------------------------5-----
0--0--0--0--0--0--0--0--------0--0--0--0--0--0--0--0--0--0--0--0--3-----
                                                                        

                                                                        
------------------------------------------------------------------------
------------------------------------------------------------------------
------------------------------------------------------------------2-----
---------------------------------------2--2--2--3--3--3--5--5--5--------
7-----------------------------------------------------------------------
5--0--0--0--0--0--0--0--0--0--0--0--0-----------------------------------
                                                                        

         riff3 twice                                                    
------|-----------------------------------------------------------|-----
------|-----------------------------------------------------------|-----
2--2--|-----------------------------------------------------------|-----
------|-----------------------------------------------------------|-----
------|-----------------------------------------------------------|-----
------|-----------------------------------------------------------|-----
                                                                        

                                          pm                            
------------------------|-----------------------------------------------
------------------------|-----------------------------------------------
------------------------|-----------------------------------------------
3--2--------------------|--------------4--------------------------------
------5--3--2-----------|--2-----------2--------0--2--------------------
---------------5--3--2--|--0--------------------------------------------
                                                                        

slow part(play6 times)                                                  
------------------------------------------------------|-----------------
------------------------------------------------------|-----------------
---------2--------------------------------------------|-----------------
5--------0--5--4--------5--4--------------------------|-----------------
3-----------3--2--------3--2--------------------------|-----------------
------------------------------------------------------|-----------------
                                                                        

play this twice                                                         
------------------------------------------------------------------------
------------------------------------------------------------------------
------------------------------------------------------------------------
---------------------------------------------------4--------5-----------
---------------------------------------------------2--------3-----------
0--0--0--0--0--0--0--0--0--0--0--0--0--0--0--0--------0--0-----0--0-----
                                                                        

                                                                        
-----------------------|------------------------------------------------
-----------------------|------------------------------------------------
-----------------------|------------------------------------------------
4--------5-------------|------------------------------------------------
2--------3--3h5--5--5--|------------------------------------------------
---0--0----------------|------------------------------------------------
                                                                        

                                                                        
------------------------------------------------------------------------
------------------------------------------------------------------------
---------4-----------2-----------2--------4-----------1--1--4-----------
---------2-----------0--------5--0--------2-----------------2-----------
------------------------------3-----------------------------------------
------------------------------------------------------------------------
                                                                        

                                                                        
------------------------------------------------------------------------
------------------------------------------------------------------------
2-----------2--------4--------1--1--4-----------2-----------2-----------
0--------5--0--------2--------------2-----------0--------5--0-----------
---------3-----------------------------------------------3--------2-----
------------------------------------------------------------------------
                                                                        

                                                                        
------------------------------------------------------------------------
------------------------------------------------------------------------
------------------------------------------------------------------------
------------------------------4-----------5-----------7-----5-----5-----
2--2--2--2--2--2--2--2--2-----2--------0--3--------0--5--0--3--0--3-----
------------------------------------------------------------------------
                                                                        

                                                                        
------------------------------------------------------------------------
------------------------------------------------------------------------
------------------------------------------------------------------------
---4-----------5-----------7-----5-----5-----4-----------------5--------
0--2--------0--3--------0--5--0--3--0--3--0--2--------------0--3--------
------------------------------------------------------------------------
                                                                        

                                                                        
------------------------------------------------------------------------
------------------------------------------------------------------------
---2-----3-----4-----------2-----------------2--------4-----------------
---0-----1-----2-----------0--------5--------0--------2-----------------
0-----0-----0-----------------------3-----------------------------------
------------------------------------------------------------------------
                                                                        

                                                                        
------------------------------------------------------------------------
------------------------------------------------------------------------
---------2-----------------2-----4--------------------2-----------------
---------0-----------5-----0-----2--------------------0--------5--------
---------------------3-----------------------------------------3--------
------------------------------------------------------------------------
                                                                        

                                                                        
------------------------------------------------------------------------
------------------------------------------------------------------------
---2--------4-----------------------------------------------5--4--5-----
---0--------2-----------4--4--4--5--5--5--7--7--7--9--9--9--3--2--3-----
------------------------------------------------------------------------
------------------------------------------------------------------------
                                                                        

                                                                        
------------------------------------------------------------------------
------------------------------------------------------------------------
7--5--4-----------------------------------------------------------------
5--3--2--5--4-----------------------------------------------------------
---------3--2--2--------------------------------------------------------
---------------0--------------------------------------------------------
                                                                        

                                                                        
------------------------------------------------------------------------
------------------------------------------------------------------------
------------------------------------------------------------------------
------------------------------------------------------------------------
------------------------------------------------5--7--------------------
------------0--0--0--0--0--0--0--0--0--0--0--0--3--5--0--0--0--0--0-----
                                                                        

                                                                        
------------------------------------------------------------------------
------------------------------------------------------------------------
---------------------5--4-----------------------------------------------
---------------------3--2-----------------------------------------------
------------------------------------------------------------------5-----
0--0--0--0--0--0--0-----------0--0--0--0--0--0--0--0--0--0--0--0--3-----
                                                                        

                                                                        
------------------------------------------------------------------------
------------------------------------------------------------------------
---------------------------------------5--4-----------------------------
---------------------------------------3--2-----------------------------
7--------------------------------------------------------------5--7-----
5--0--0--0--0--0--0--0--0--0--0--0--0--------0--0--0--0--0--0--3--5-----
                                                                        

                                                                        
------------------------------------------------------------------------
------------------------------------------------------------------------
------------------5--4--------------------5--4--5--4--5--4--------------
------------------3--2--------------------3--2--3--2--3--2--------9-----
------------------------------------------------------------------7-----
0--0--0--0--0--0--------0--0--0--0--0--0--------------------------------
                                                                        

                                                                        
------------------------------------------------------------------------
------------------------------------------------------------------------
------------------------------------------------------------------------
------9--------9--------9--------------9--------------------------------
------7--------7--------7--------------7-------------------------------
------------------------------0--0--0-----------------------------------
                                                                        



========================================================================
==            Created with a demo version of BUCKET O' TAB            ==
==              tablature creation software for Windows               ==
==                   http://www.his.com/~gse/bucket                   ==
========================================================================


Текст, аккорды и табулатура для песни "Kill At Command", исполняет "Over Kill".
Используемые в песне аккорды можно найти в разделе Как брать аккорды. Аккорды для шестиструнной гитары. Другие песни можно найти на нашем сайте, воспользовавшись алфавитным указателем вверху страницы.


 
Ошибка в тексте? Выделите ошибку и нажмите Ctrl+Enter