Author/Artist: Ours
Title: Sometimes
Album: Distorted Lullabies
Transcribed by: gremlin
Email: [email protected]

Standard tuning
  
  Intro (Light Dist)                               
-|--------------------
-|--------------------
-|--------------------
-|---9--9---7-7--5----
-|--10-10---9-9--7----
-|0------ 0-----------
                                                                              
  Main Riff (Heavy Dist)
-|-2-2-2--3--2--0--0---
-|-3-3-3--3--3--0--0---
-|-2-2-2--2--2--0--0---
-|-0-0-0--0--0-----2---
-|-----------------2---
-|-----------------0---

  Verse (Clean)

  (Em)      (C)      (G)     (C5)
-|------------------------------------
-|-----0---------1-------0--------3---
-|-------0---------0-------0--------4-
-|-------------2----------------4-----
-|---2-------3---------2------2-------
-|-0-----------------3----------------

  Solo
-|-------------------------------------------------
-|-13-13-13-12---12-12-12-10---1012-10-8-7-8-10-12
-|--x--x--x--x----x--x--x--x----x--x--x-x-x-x--x--x
-|-10-10-10--9----9--9--9--7----7-9--7-5-4-5--7--9
-|-------------------------------------------------
-|-------------------------------------------------

  Bridge(x2)
    C    G    D   
-|-0-0--3-3--3-3--3-3------
-|-1-1--3-3--2-2--3-3------
-|-0-0--0-0--3-3--0-0------
-|-2-2--0-0--0-0--0-0------
-|-3-3--2-2-------2-2------
-|------3-3-------3-3------

thanks for the help willy


Текст, аккорды и табулатура для песни "Sometimes", исполняет "Ours".
Используемые в песне аккорды можно найти в разделе Как брать аккорды. Аккорды для шестиструнной гитары. Другие песни можно найти на нашем сайте, воспользовавшись алфавитным указателем вверху страницы.


 
Ошибка в тексте? Выделите ошибку и нажмите Ctrl+Enter