Our Lady Peace 
Sorry 
Tabbed by: Andy Picker 
Tuning: down a half step 
www.ourladypeace.cc


Verse 
E|-------------------------------------------| 
B|-------------------------------------------| 
G|--------------------------------------2-5--| 
D|--5-7-4-------5-7-4-------5-7-4-------2-5--| 
A|--5-7-4-----2-5-7-4-----2-5-7-4----2--0-3--| 
E|--3-5-2-2-4---3-5-2-2-4---3-5-2-2-4--------| 

“Welcome to this world..” 
E|-----------------------------------| 
B|-----------------------------------| 
G|-----------------------------------| 
D|--5-5-x-x-5-5-x-x-5-5-x-x-5-5-x-x--| 
A|--5-5-x-x-5-5-x-x-5-5-x-x-5-5-x-x--| 
E|--3-3-x-x-3-3-x-x-3-3-x-x-3-3-x-x--| 

Chorus 
E|---------------------------------------| 
B|---------------------------------------| 
G|----------7-7-x-x-2-2-2-2-7/9-9-97-7--| play 3x 
D|--5-5-----7-7-x-x-2-2-2-2-x/x-x-xx-x--| 
A|--5-5/7-5-5-5-x-x-0-0-0-0-5/7-7-75-5--| 
E|--3-3----------------------------------| 

On 4th time do everything the same exceptat end do 
|---------------| 
B|---------------| 
G|--97-7-75-5--| 
D|--xx-x-xx-x--| 
A|--75-5-53-3--| 
E|---------------| 

Second verse 
Guitar 2 adds this a few times 
E|----------5--| 
B|------7------| 
G|----7--------| 
D|--5----------| 
A|-------------| 
E|-------------| 


Then.. 
E|---------7-5--| 
B|------7-------| 
G|----7---------| 
D|--5-----------| 
A|--------------| 
E|--------------| 

Bridge 
E|---------------------------| |-----------| 
B|---------------------------| |-----------| 
G|---------------------------| |-----------| 
D|--5-5-5-5-5-5-5-5-5-5-5-5--| |--5-5-5-5--| 
A|--5-5-5-5-5-5-5-5-5-5-5-5--| |--5-5-5-5--| 
E|--3-3-3-3-3-3-3-3-3-3-3-3--| |--3-3-3-3--| 
  |pmute||pmute| |pmute|      |Harmonics|


Текст, аккорды и табулатура для песни "Sorry", исполняет "Our Lady Peace".
Используемые в песне аккорды можно найти в разделе Как брать аккорды. Аккорды для шестиструнной гитары. Другие песни можно найти на нашем сайте, воспользовавшись алфавитным указателем вверху страницы.


 
Ошибка в тексте? Выделите ошибку и нажмите Ctrl+Enter