(Gtr.1)
INTRO (Acoustic)
E|-------------------0----------|
B|----3--------------3----------|
G|----2----9----7----0----7-----|
D|----0----7----5----2----5-----|
A|----0----7----5----2----5-----|
D|----0----7----5----2----5-----|

(Gtr.2)
INTRO (Electric)
E|-----------------------     ---0---0-0-------------|
B|-----------------------     ---3---3-3-------------|
G|----7---6-6/9---7-7----     ---0---0-0----7--7-7---|
D|----X---X-X-----X-X---- X 3 ---2---2-2----X--X-X---|
A|----5---4-4/7---5-5----     ---2---2-2--2/5--5-5---|
D|-----------------------     -----------------------|

(Gtr.1)
VERSE    X 2+
E|-----------------0------------|
B|-----3-----------3------------|
G|-----2-----7-----0-----7------|
D|-----0-----5-----2-----5------|
A|-----0-----5-----2-----5------|
D|-----0-----5-----2-----5------|

(Gtr.2)
VERSE
E|------------------------------|
B|------------------------------|
G|-----7-----7---74---47------|
D|-----X-----X---------X--------|
A|-----5-----5---52---25------|
D|------------------------------|

(Gtr.1)
PRE-CHORUS
E|------0-----------------------|
B|------3-----------------------|
G|------0------7----------------|
D|------2------5----------------|
A|------2------5----------------|
D|------2------5----------------|

(Gtr.2)
PRE-CHORUS
E|------------------------------11-----------11-----|
B|------------------------11-11----11--11-11----11--|
G|------------7-------------------------------------|
D|--------------------------------------------------|
A|----7-7-9-9---9-7-7-9/5---------------------------|
D|--------------------------------------------------|

VERSE (BOTH Gtrs.)   X 2

(Gtr.1) PRE-CHORUS   X 1
(Gtr.2)
PRE-CHORUS (Distorted Electric)
E|------------------------------|
B|------------------------------|
G|------------------------------|
D|------2------5----------------|
A|------2------5----------------|
D|------2------5----------------|


(Gtr.1) CHORUS (Heavy Distortion)  X 2
E|---------------------------0-------------|
B|---------------------------3-------------|
G|------2------9------7------0------7------|
D|------0------7------5------2------5------|
A|------0------7------5------2------5------|
D|------0------7------5------2------5------|

(Gtr.2) CHORUS  X 2
E|--------------------------     ----------------------|
B|--------------------------     ----------------------|
G|----7----6----6/9----7----     ----7/4---4----4/9----|
D|----X----X----X------X---- X 3 ----X-----X----X------|
A|----5----4----4/7----5----     ----5/2---2----2/7----|
D|--------------------------     ----------------------|

(Gtr.2) End Chorus with INTRO
(Gtr.1) End Chorus with
E|-----------------------------------------------------|
B|----10----10---10---10--------7-8-7-8-7-8-10---------|
G|---(7)-----------------------------------------------|
D|----7---7----7----7----7-----------------------------|
A|-----------------------------------------------------|
D|-----------------------------------------------------|

VERSE    X 2
CHORUS   X 2

(Gtr.1) End Chorus with
E|-------------------------|
B|-------------------------|
G|-------------------------|
D|--------2-------5--------|
A|--------2-------5--------|
D|--------2-------5--------|

(Gtr.2) End Chorus with
E|------------15-14----14--|
B|---3/15-----------15-----|
G|---------12--------------|
D|-------------------------|
A|-------------------------|
D|-------------------------|

(Gtr.1)
BRIDGE
E|-----------------------|
B|-----------------------|
G|----7---6-6/9---7------|
D|----X---X-X-----X------| X 7
A|----5---4-4/7---5------|
D|-----------------------|


(Gtr.2)
BRIDGE (Heavy Distortion)
E|-----------------------|
B|-----------------------|
G|-----------------------|
D|---0----2----4----2----|
A|---0----2----4----2----|
D|---0----2----4----2----|

CHORUS   X 3

(Gtr.1) END With
E|---------------------------0------------|
B|---------------------------0------------|
G|------2------9------7------0------------|
D|------0------7------5------2------------|
A|------0------7------5------2------------|
D|------0------7------5------2------------|

(Gtr.2) END With
E|--------------------------     ----------------------|
B|--------------------------     ----------------------|
G|----7----6----6/9----7----     ----7/4---4-----------|
D|----X----X----X------X---- X 3 ----X-----X-----------|
A|----5----4----4/7----5----     ----5/2---2-----------|
D|--------------------------     ----------------------|


Текст, аккорды и табулатура для песни "Somewhere Out There", исполняет "Our Lady Peace".
Используемые в песне аккорды можно найти в разделе Как брать аккорды. Аккорды для шестиструнной гитары. Другие песни можно найти на нашем сайте, воспользовавшись алфавитным указателем вверху страницы.


 
Ошибка в тексте? Выделите ошибку и нажмите Ctrl+Enter