Artist: Our Lady Peace
Song: Not Enough
Album: Gravity

This tab is all my own work from listening to the record. 
Not sure if it's perfect, but it sounds right.
Standard Tuning

Intro (clean)
e|----------------|-----------0------|-------2--------|--------------|
b|---------5------|------0-----------|-----------0--4-|-------2------|
g|----------------|---------2--------|----1-----------|--------------|
d|-----6----------|----2-------------|-2--------------|----1---------|
a|-4--------------|-0----------------|----------------|-2------------|
E|----------------|------------------|----------------|--------------|

Verse1 (clean)
e|----------------|-0----0----0------|-0-----2--------|-2-----2------|
b|----5-----------|-2----0----2------|-0---------0--4-|-4-----4------|
g|--------6-------|-2----2----2------|-1--------------|-4-----4------|
d|----------6-----|-2----2----2------|-2--------------|-4-----4------|
a|-/4-------------|-0----0----0------|-2--------------|-2-----2------|
E|----------------|------------------|-0--------------|--------------|

e|----------------|-----------0------|-4-----4--------|-2-----2------|
b|----5-----------|------0-----------|-5-----5--------|-4-----4------|
g|--------6-------|---------2--------|-4-----4--------|-4-----4------|
d|----------6-----|----2-------------|----------------|-4-----4------|
a|-/4-------------|-0----------------|----------------|-2-----2------|
E|----------------|------------------|----------------|--------------|

Chorus1 (dist.)
e|----------------|------------------|----------------|--------------|
b|----------------|------------------|----------------|--------------|
g|-6--------------|------------------|----------------|-4------------|
d|-6--------------|-7----------------|-2--------------|-4------------|
a|-4--------------|-7----------------|-2--------------|-2------------|
E|----------------|-5----------------|-0--------------|--------------|

Postchorus (clean)
e|------------------------|-----------0------|-------2--------|--------------|
b|---------5----4h5p4-----|------0-----------|-----------0--4-|-------2---0--|
g|--------------------6p4-|---------2--------|----1-----------|--------------|
d|-----6------6-----------|----2-------------|-2--------------|----1---------|
a|-4----------------------|-0----------------|----------------|-2------------|
E|------------------------|------------------|----------------|--------------|

Verse2 same as Verse1 (clean)
Chorus2 same as Chorus1 (dist.)

Bridge (dist.)
e|----------------|------------------|----------------|--------------|
b|----------------|------------------|----------------|--------------|
g|-6---6----------|-6---6------------|-6---6----------|-6---6------6-|
d|-6---6----------|-6---6------------|-6---6----------|-6---6------6-|
a|-4---4----------|-4---4------------|-4---4----------|-4---4------4-|
E|----------------|------------------|----------------|--------------|

Solo (dist.)
e|----------------|------------------|----------------|------------------|
b|----------------|------------------|----------------|------------------|
g|------6~~-------|-8h9p8------------|-8h9p8----------|---6--------8-----|
d|-6-9------------|--------9---7~~---|--------96~~---|------9-9-9---9~~-|
a|----------------|------------------|----------------|-7----------------|
E|----------------|------------------|----------------|------------------|

e|----------------|------------------|----------------|--------------|---------
------------------|
b|----------------|------------------|----------------|--------------|---------
------------------|
g|------6~~-------|-8h9p8------------|-8h9p8----------|--------------|-----11--
--11-----11---11^-|
d|-6-9------------|--------97~~-----|--------96~~---|---9-9-9h11p9-|-9-9----9
9----9-9----9-----|
a|----------------|------------------|----------------|-7------------|---------
------------------|
E|----------------|------------------|----------------|--------------|---------
------------------|

Chorus3 same as Chorus1 (dist.)

Outro (dist.)
e|----------------|----------------------|-------------|-----------------|
b|----------------|----------------------|-------------|-----------------|
g|-6--8h9p8-8h9p8-|-8h9p8-8h9p8-9h11p9---|-8h9p8-8h9p8-|-8h9p8-8h9p8-6---|
d|----------------|----------------------|-------------|---------------9-|
a|----------------|----------------------|-------------|-----------------|
E|----------------|----------------------|-------------|-----------------|

e|----------------|---------------|-----------------|-----------------|
b|----------------|---------------|-----------------|-----------------|
g|-9--8h9---8h9---|-8h9--8h9--8h9-|-11--9h11--9h11--|-13~--11---------|
d|----------------|---------------|-----------------|-----------------|
a|----------------|---------------|-----------------|-----------------|
E|----------------|---------------|-----------------|-----------------|

That's about the size of it.Cheers(B)!


Текст, аккорды и табулатура для песни "Not Enough", исполняет "Our Lady Peace".
Используемые в песне аккорды можно найти в разделе Как брать аккорды. Аккорды для шестиструнной гитары. Другие песни можно найти на нашем сайте, воспользовавшись алфавитным указателем вверху страницы.


 
Ошибка в тексте? Выделите ошибку и нажмите Ctrl+Enter