Artist: Our Lady Peace
Song: Everyone's  Junkie
Album: Sprirtual Machines
Tabbed by: Dave Hawley    [email protected]

h=Hammer on
p=pull off

Verse:
G|--------------------------------|
D|-----4------6-4p3---3h4p3-------|
A|---2---2----------4-------4h6-8-|
E|-4------------------------------|

Pre-Chorus:
(where does it stop, where does it end, why am I always Complaining)
G|------------------------------------------------|
D|------------------------------------------------|
A|----------2-2-2-2--2-2-2------------------------|
E|-4-4-4-4-----------------2-2-2-2-0-1-1-1-0-1-0-1|

Chorus:
G|-------------6---------------------------------------|
D|-----------------------------------------------------|
A|---------1-----4-4-4-------------------------2-2-2-2-|
E|-2-2-2-2---2---------0-0-0-0-0-0-0-0-0-0-0-0---------|

G|-----------------------------------------------------------------|
D|-----------------------------------------------------------------|
A|-----------------4-4-4-4-4-4-4-4---------2---2-------------------|
E|-2-2-2-2-2-2-2-2-----------------4-4-4-4---4---4-6-6-6-6-5-6-5-6-|

G|-------------6---------------------------------------|
D|-----------------------------------------------------|
A|---------1-----4-4-4-------------------------2-2-2-2-|
E|-2-2-2-2---2---------0-0-0-0-0-0-0-0-0-0-0-0---------|

Weird Interlude:
G|-------------------------------|
D|-----------------------3h4p3---|
A|-------------------2-4-------4-|
E|-4-4-4-4-4-4-4-4-4-------------|

I'll Remember This Some Day!
G|-----------------------|
D|-----------------------|
A|-2-2-1-2-1-2-2-2-2-1-2-|
E|-----------------------|

This is right when using a 4 string bass, so dont say it isnt without giving 
some kind of correction.


Текст, аккорды и табулатура для песни "Everyones A Junkie", исполняет "Our Lady Peace".
Используемые в песне аккорды можно найти в разделе Как брать аккорды. Аккорды для шестиструнной гитары. Другие песни можно найти на нашем сайте, воспользовавшись алфавитным указателем вверху страницы.


 
Ошибка в тексте? Выделите ошибку и нажмите Ctrl+Enter