4am
Our Lady Peace: Clumsy
Tabbed by Scott Grant ([email protected])

Tune down half a step!  (Eb Ab Db Gb)

If I don't make it..
--------------------

Eb --0----5---/7--------0----5---/7-----------5---/7--------10---9----7--


I walked around..
-----------------

Ab --4---/12------4---------0---0-2--4---/12/16--12---------
Eb ---------------------2--4-------------------------------------


If I don't make it.. (2)
--------------------

Eb --0----5---/7---7-5-7---7-5-7--  x3

Eb --10--10--9--9--7--7--7-7-7-7-7-7-7-7--

Instrumental
------------

Eb --0--0---12-10-10-10---10-9-9-9--9-10-10-9--5-5-5-5-5--

Eb --0--0---12-12-7--7--9---9-5-5--0-0--


And I hope to god..
-------------------

Eb --5--5--4--4--2--2/142--2/14--


Текст, аккорды и табулатура для песни "4 Am", исполняет "Our Lady Peace".
Используемые в песне аккорды можно найти в разделе Как брать аккорды. Аккорды для шестиструнной гитары. Другие песни можно найти на нашем сайте, воспользовавшись алфавитным указателем вверху страницы.


 
Ошибка в тексте? Выделите ошибку и нажмите Ctrl+Enter