-----------------------------------------------------------------------------
       Paranoid w/ Randy Rhoads(Tribute Version)- Ozzy Osbourne
-----------------------------------------------------------------------------


Tuning:EADGBe

Intro           
Play 3 times               
e|----------------------------------|---------------------------------------|
B|----------------------------------|-------------------7--8-------7h8------|
G|-9---9---9----------7h9-------7h9-|-9---9---9---7-----7--9--7h9--7h9------|
D|-9---9---9-----7--9------7--9-----|-7---7---9---7--9--------7h9-----------|
A|-7---7---7------------------------|-7---7---7-----------------------------|
E|-0---0---0------------------------|-0---0---0-----------------------------|

Verse (Play for all verses)
e|--------------------------------------------------------------------------|
B|--------------------------------------------------------------------------|
G|--------9-------------9-------------9----------------------7------------7-|
D|--------9-------------9-------------9----------------------7------------7-|
A|--------7-------------7-------------7----------5h7--5---5----5---5---5----|
E|-0---0-----0---0---0-----0---0---0-----0--5h7-----------------------------|
1.Finished with my woman......
2.All day long I think........
3.I need someone to show......
4.Make a joke and I will......
5.And so as you hear these....
e|--------------------------------------------------------------------------|
B|----------------8h9-8h9---------------------------------------------------|
G|----7----------------------------9-------------9-------------9------------|
D|----5--7-----9-------------------9-------------9-------------9------------|
A|5------5-----7-------------------7-------------7-------------7--------5h7-|
E|--------------------------0---0-----0---0---0-----0---0---0----0--5h7-----|

e|-------------------------------------------------|
B|-------------------------------------------------|
G|--7----------7----------7-----7-----------------0|
D|--7----------7----------7-----5---7--------9----0|
A|--5-----5----5-----5----5---------5--------7-----|
E|-------------------------------------------------|

Play after 1st verse
e|--------------------------------------------------------------------------|
B|--------------------------------------------------------------------------|
G|-----------------------5----7---0--------9--(9)-(9)-(9)-(9)--5---7----0---|
D|-----------------------5----7---0----2-----------------------5---7----0--2|
A|----(bend neck)--------3----5--------2-----------------------3---5-------2|
E|--3----0b---(0)--(0)-----------------0-----------------------------------0|

Play after 2nd verse
e|--------------------------------------------------------------------------|
B|---------------------------------------------------3-------X--------------|
G|--4-------(4)--------------7-----------------------2-------X--------------|
D|--2-------(2)--------------7------------9---0h2p0--0----------------------|
A|--2-------(2)--------------5------------7---------------------------------|
E|--0-------(0)---------12----------0----0-------------------------17-----|

Play after 4th verse
e|--------------------------------------------------------------------------|
B|--------------------------------------------------------------------------|
G|-----------------5---X--7-----0---------0---------------0--5----X-7--0----|
D|-----------------5---X--7-----0---2-----0-------2--(2)--0--5----X-7--0--2-|
A|-----------------3---X--5---------2--------10--2--(2)-----3----X-5-----2-|
E|-0-----3---0----------------------0-------------0-----------------------0-|

e|----------------------|
B|----------------------|
G|----------------------|
D|--2/16-(16)-(16)-(16)-|
A|----------------------|
E|----------------------|

Solo(Play after third verse)
e|-------12--------12-------12-------12--------12--------12-------12------12|
B|----12--------12--------12-------12--------12--------12-------12------12--|
G|14b-------14b-------14b------14b-------14b-------14b------14b------14b----|
D|--------------------------------------------------------------------------|
A|--------------------------------------------------------------------------|
E|--------------------------------------------------------------------------|

e|---------------------13----------14-------------15------12-14-16-12-16-16-|
B|-----12-15p12-----13----16p13-------17p14----15----17b--------------------|
G|-14b-----------15-------------16----------17------------------------------|
D|--------------------------------------------------------------------------|
A|--------------------------------------------------------------------------|
E|--------------------------------------------------------------------------|

e|15-14-12-14-15-14-12-14-17-14-15-14-12-14-15p14-17p14/15-------22-18h19p18|
B|---------------------------------------------------------15/18------------|
G|--------------------------------------------------------------------------|
D|--------------------------------------------------------------------------|
A|--------------------------------------------------------------------------|
E|--------------------------------------------------------------------------|

                                                                     T
e|-20-18--------------------------------------------------------------------|
B|-------20-18h19h18----18--------------------------------------------------|
G|-------------------20----20p18-----18-------------------------2b---4p(2)--|
D|--------------------------------20-----20p18----18------------------------|
A|---------------------------------------------21----21p18-20~--------------|
E|--------------------------------------------------------------------------|

   T              T                                    T
e|--------------------------------------------------------------------------|
B|--------------------------------------------------------------------------|
G|-10-2--(2)-(2)--9p2-(2)-(2)-(2)-0-2-0---2-0------------------------16-16p0|
D|--------------------------------------------X---14b--17p14--14p12--15-15p0|
A|--------------------------------------------------------------------------|
E|--------------------------------------------------------------------------|

e|----------------12--15p12h14p12-15p12-------------------------------------|
B|---12--15b-(15)-----------------------15-12--12h13p12----12---------------|
G|-12--12-----------------------------------------------15----13p11h12p11---|
D|--------------------------------------------------------------------------|
A|--------------------------------------------------------------------------|
E|--------------------------------------------------------------------------|

e|--------------------------------------------------------------------------|
B|-------------------------------------------------------7h8h10-10b---------|
G|----------------11h14/16~-(16)------------4h5h7-6h7h9--------------------|
D|-14p11h12p11h14-----------------------4h5h7-------------------------------|
A|---------------------------------4h5h7------------------------------------|
E|-------------------------------------------------------------------12----|

Song Order:
Intro
Verse 1(part after)
Verse 2(part after)
Verse 3
Solo
Verse 4(part after)
Verse 5(part after)
[End song after 5th verse]


| /  slide up
|   slide down
| h  hammer-on
| p  pull-off
| v  vibrato
| T  tap
| b  bend
| x  Mute note
===============================================================================


Текст, аккорды и табулатура для песни "Paranoid", исполняет "Osbourne Ozzy".
Используемые в песне аккорды можно найти в разделе Как брать аккорды. Аккорды для шестиструнной гитары. Другие песни можно найти на нашем сайте, воспользовавшись алфавитным указателем вверху страницы.


 
Ошибка в тексте? Выделите ошибку и нажмите Ctrl+Enter