Song: No Easy Way Out
Artist: Ozzy Osburne
Tabbed by: Travis (cherginator)


e|--------------------------------------------------|
B|--------------------------------------------------|
G|------0-----0-0-----------------------------------|
D|----0-----0---0-----------------------------------| X 3
A|--3-----2-----1-----------------------------------|
E|--------------------------------------------------|

e|-------------------------------------------|
B|-------------------------------------------|
G|-------------------------------------------|
D|-3--5-5------------------------------------|
A|-3--5-5------------------------------------|
E|-1--3-3------------------------------------|

e|--------------------------------------------------------|
B|--------------------------------------------------------|
G|--------------------------------------------------------|
D|---5-5-5-8-8-8--3-5-------------------------------------|  X 4
A|---5-5-5-8-8-8--3-5-------------------------------------|
E|---3-3-3-6-6-6--1-3-------------------------------------|

hope you enjoy playing this song, email me at [email protected] if you have any 
thanks
                           -Travis


Текст, аккорды и табулатура для песни "No Easy Way Out", исполняет "Osbourne Ozzy".
Используемые в песне аккорды можно найти в разделе Как брать аккорды. Аккорды для шестиструнной гитары. Другие песни можно найти на нашем сайте, воспользовавшись алфавитным указателем вверху страницы.


 
Ошибка в тексте? Выделите ошибку и нажмите Ctrl+Enter