Ozzy Osbourne
Get's Me Through
Down to Earth
i hope the original transcriber doesnt mind but i just had to fix it..................

^=means to bend string but you should know that 

This riff is basically used throughout the whole song
e|--------------------------|
B|--------------------------|
G|-------^------------------|
D|-------^-----------0h3----|
A|------4^-------0h3--------|you can figure out the rhythm
E|0-0-0-2^------------------|

Bridge
e|----------------------------------------------|--LAST TIME
B|----------------------------------------------|------------
G|9----11-12--9---11-12------12--11-----12--11--|------------
D|-----------------------10----------10---------|------------
A|7----9--10--7---9--10------10--9------10--9---|------------
E|-----------------------8-----------8----------|8888--101010

Solo
e|--------------------------------------
B|--------------------------------------
G|9~~~~-11^(12)11^(12)-11^(12)r11--9~~~~
D|--------------------------------------
A|--------------------------------------
E|--------------------------------------

e|------------------------------------------------------------------
B|------------------------------------------------------------------
G|14^(16)r14-14--12--11-12-------12^(14)r12---12^(14)r12-12--11-12--
D|-------------------------10~------------------------------------10~
A|------------------------------------------------------------------
E|------------------------------------------------------------------
					TRILLS(USE SIDE OF PICK)
e|------------------------------------------------------------------------
B|------------------------------------------------------------------------
G|-----------------------------------9(11)-9(12)-9(14)---9(11)--9(16)-9(14)
D|12-10-9--12-10-9--------------------------------------------------------
A|-----------------12-10-9------------------------------------------------
E|-------------------------12-10-9----------------------------------------

e|----------------15^17-15^17-15-15^17-15-15^17-15-15^17--
B|15^17--15^17p12-------------------------------------------
G|-----------------------------------------------------
D|-----------------------------------------------------
A|---------------------------------------------------------
E|-------------------------------------------------------

e|12------12-------------------------------------------
B|--15^17----15-12------------------------------------------
G|-----------------14^16r14p12--------------------------------
D|-----------------------------14--------------------
A|-----------------------------------------------
E|-------------------------------------------------
			Hella fast
e|--------------------------------------------------------
B|--------------------------------------------------------
G|2^4(hold)--------1519--1519--1519--1519--1519--1519----
D|----------------16----16----16----16----16----16----16--
A|--------------------------------------------------------
E|--------------------------------------------------------
			Unison bends
e|-----------------------------9--------------------
B|----------------5---4---3----12^------------------
G|2^4(hold)--7^9--7^9-6^8-5^7-----------------------
D|--------------------------------------------------
A|--------------------------------------------------
E|--------------------------------------------------

That's it except during the chorus in the last part he plays this once

e|-------------------------------------------------
B|-------------------------------------------------
G|4---7----------------------------------------------
D|4---7----------------------------------------------
A|2---5--------------------------------------------
E|-------------------------------------------------


Текст, аккорды и табулатура для песни "Gets Me Through", исполняет "Osbourne Ozzy".
Используемые в песне аккорды можно найти в разделе Как брать аккорды. Аккорды для шестиструнной гитары. Другие песни можно найти на нашем сайте, воспользовавшись алфавитным указателем вверху страницы.


 
Ошибка в тексте? Выделите ошибку и нажмите Ctrl+Enter