-By Jim Klonowski

My first tab.  I think I did a good job since I've only been playing fo 2 years.  This was a very har sond totab because there were, like, 5 guitar parts.  Hope this helps you all.

Intro

e|----------------------------------------------------------
B|------------8-7---------------8-7---------------8---------
G|------9---------9-------9---------9--------9------11-9----
D|----9---9---------9---9---9---------9---10---10--------10-
A|--7-------7---------7-------7-----------------------------
E|--0-----------------------------------8-------------------

e|----------------------------------------------------------
B|-------------8-7---------------8-7-------8-7--------------
G|-------9---------9-------9---------9---------9--------9---
D|----10---10--------9---9---9---------9---------9---10---10
A|---------------------7-------7---------7------------------
E|--8---------8--------0---------------------------8--------

e|-----------------------12----12(24)-----------------------
B|----8---------------------11-------11(23)-----------------
G|------11-9----9-------------------------------------------
D|-----------10---8----8------------------------------------
A|------------------10--------------------------------------
E|--8-----------8-------------------------------------------

Riff A
Play twice
e|----------------------------------------------------------
B|----------------------------------------------------------
G|----------------------------------------------------------
D|---------------------------------------------------0~2----
A|---------4/------4/----------------4/----------0~2--------
E|--0-0--0-2/-0--0-2/--0--0---0-0--0-2/-0---0--0------------

Verse
.§.
e|----------------------------------------------------------
B|----------------------------------------------------------
G|----------------------------------------------------------
D|----------------------------------------------------------
A|--22--2-2--2--22--2--2--22--2-2--2--22--2--2--22--2-2-2-2-
E|--00--0-3--0--03--0--0--00--0-3--0--03--0--0--00--0-3-0-0-

e|----------------------------------------------------------
B|----------------------------------------------------------
G|----------------------------------------------------------
D|----------------------------------------------------------
A|-2-2---2--22--2-2-2--2------xxxx--------------------------
E|-3-0---0--00--0-3-0--0-3~~~-xxxx--------------------------
                               
Repeat 3x             To Coda
e|----------------------------------------------------------
B|----------------------------------------------------------
G|----------------------------------------------------------
D|----------------------------------------------------------
A|-22-2-2--2-2-2-2-2----------------------------------------
E|-00-0-3--0-0-3-0-0----------------------------------------

e|----------------------------------------------------------
B|----------------------------------------------------------
G|----------------------------------------------------------
D|----------------------------------------------------------
A|-22--2-2-2--2---------------------------------------------
E|-00--0-3-0--0-3~~~~---------------------------------------

-Interlude-
Riff A
Play twice
e|----------------------------------------------------------
B|----------------------------------------------------------
G|----------------------------------------------------------
D|---------------------------------------------------0~2----
A|---------4/------4/----------------4/----------0~2--------
E|--0-0--0-2/-0--0-2/--0--0---0-0--0-2/-0---0--0------------

Play Riffs C and C1 simultaneously w/ 2 guitars

Bridge-Riff C-Guitar 2
e|----------------------------------------------------------
B|-5-----------7-----8------5---------7----8--------8--7----
G|-x-----------x-----x------x---------x----x---3/5--x--x----
D|-2-----------4-----5------2---------4----5---x----5--4----
A|---------------------------------------------1/3----------
E|----------------------------------------------------------

e|----------------------------------------------------------
B|-----8--7------------------------------------------------
G|-3/5-x--x------------------------------------------------
D|-x---5--4------------------------------------------------
A|-1/3------------------------------------------------------
E|----------------------------------------------------------
End Riff C

Brige-Riff C1-Guitar 3
e|-0-------0-------0-------0-------0-------0----0----0------
B|----0-------0-------0--------0-------0------0----0----0---
G|----------------------------------------------------------
D|----------------------------------------------------------
A|----------------------------------------------------------
E|----------------------------------------------------------

e|----------------------------------------------------------
B|--5------5------5------5------5------5------5------5------
G|-----3------3------3-------3------3-----3-------3------3--
D|----------------------------------------------------------
A|----------------------------------------------------------
E|----------------------------------------------------------
End Riff C1

Guitar Solo
Guitar 4
e|----------------------------------------------------------
B|-------------------------/-------------------------------
G|--9~~~~~~~~-11/--11/--11/  (11)--9~~~~~~~~/14~~~~~-12--11-
D|----------------------------------------------------------
A|----------------------------------------------------------
E|----------------------------------------------------------

Guitars 2 and 3
e|----------------------------------------------------------
B|----------------------------------------------------------
G|--9-----99------99------99------99------99------9-12-12-12
D|--9-----99------99------99------99------99------9-12-12-12
A|--7-----77------77------77------77------77------7-10-10-10
E|----00------00------00------00------00------00------------
      PM      PM      PM      PM      PM      PM

e|----------------------------------------------------------
B|-----------------------------------------/---------------
G|-12-12-12-12-12--11--12--------12/~~~~12/-(12)-11-12------
D|-12-12-12-12-12--------10~~~~10----------------------10~~~
A|-10-10-10-10-10-------------------------------------------
E|----------------------------------------------------------

e|----------------------------------------------------------
B|----------------------------------------------------------
G|-----------------------------------------5-----5-5-----5-5
D|-----------------------------------------5-----5-5-----5-5
A|-12-11-10-12-11-10-----------------------3-3-3-3-3-3-3-3-3
E|-------------------12-11-10-12-11-10----------------------
  PM--------------------------------~|       PM      PM   

e|----------------------------------------------------------
B|----------------------------------------------------------
G|------5-5-----5-5-----5-5-----5--12-12-12-12-12-12-12-12--
D|------5-5-----5-5-----5-5-----5--12-12-12-12-12-12-12-12--
A|--3-3-3-3-3-3-3-3-3-3-3-3-3-3-3--10-10-10-10-10-10-10-10--
E|----------------------------------------------------------
    PM      PM      PM      PM         

e|----------------------------------------------------------
B|----------------------------------------------------------
G|-7-(9)~~~~~~~~-11~7--11~7~9--11~7--11~7--11~9~7--11~9-12~7
D|----------------------------------------------------------
A|----------------------------------------------------------
E|----------------------------------------------------------
                  T     T       T     T     T      T    T   

e|----------------------------------------------------------
B|----------------------------------------------------------
G|-12~9--12~7~9--12~7--12~9~7--7-(9)~~~~~~~~~-14~9-14~7-14~9
D|----------------------------------------------------------
A|----------------------------------------------------------
E|----------------------------------------------------------
    T    T       T      T                     T    T    T 

e|---------------------------------------------/~~~~12---15/
B|------------------------------------------15/-------15----
G|-14~9-14~7~9-12~7~9-12~7~9-11~7-10~9~7----------------x---
D|----------------------------------------------------------
A|----------------------------------------------------------
E|----------------------------------------------------------
    T   T       T      T     T     T          

     1 1/2 1 1/2 1                                 
     |  |  |  |  |            1~~~~~~           1      
e|--15-15-15-15-15-(15)-12----/-----------------/----------
B|-------------------------15/--------15~12----/-----------
G|------------------------------------------14/---(14)~12-14
D|----------------------------------------------------------
A|----------------------------------------------------------
E|----------------------------------------------------------

        1/2- - -    T        T        T        T        T
e|-------/-----|--7-12~7~6~7-12~7~6~7-12~7~6~7-12~7~6~7-12-
B|------/------|-------------------------------------------
G|-----/-------|-------------------------------------------
D|---7/-------(7)-(7)---------------------------------------
A|----------------------------------------------------------
E|X~~~~-----------------------------------------------------         1- - - |    1~~~~~    1   1   1   1~~~~~~~
e|-------/----|-----/---------/---/---/-9-/----------------
B|------/-----|---8/-------5-/-4-/-3-/-12/-----------------
G|----7/------7-(7)---------7/--6/--5/----------------------
D|-7~5------------------------------------------------------
A|----------------------------------------------------------
E|--------------------------------------------------X~~~~~~-
D.S. Al Coda


Coda
e|----------------------------------------------------------
B|----------------------------------------------------------
G|----------------------------4---7---7---------------------
D|----------------------------4---7---7---------------------
A|-22---2--2----2--2-2--2--2--2---5---5---------------------
E|-00---0--3----0--0-3--0--0--------------------------------

Riff A 
4 times
e|----------------------------------------------------------
B|----------------------------------------------------------
G|----------------------------------------------------------
D|---------------------------------------------------0~2----
A|---------4/------4/----------------4/----------0~2--------
E|--0-0--0-2/-0--0-2/--0--0---0-0--0-2/-0---0--0------------

Play twice
                1/4          1/4           1/4          1/4
e|--------------//-----------//------------//-----------//-
B|-------------//-----------//------------//-----------//--
G|------------//-----------//------------//-----------//---
D|-----------//-----------//------------//-----------//----
A|---------4//----------4//-----------4//----------4//-----
E|-0-0--0--2/----0--0---2/-----0--0---2/----0--0---2/------

e|----------------------------------------------------------
B|----------------------------------------------------------
G|----------------------------------------------------------
D|---------------------0~2----------------------------------
A|------------0~2-------------------------------------------
E|-0---0----------------------------------------------------

Guitar 4 
Play twice, Start fade 2nd time
         1~~~~~           1~~~~~           1/2~~~~~    1~~~~
e|-------/----------------/-----------------/--12------/----
B|------/--12--15--12----/---12--15--12----/-12--12-15/-----
G|---14/--------------14/---------------14/-----------------
D|----------------------------------------------------------
A|----------------------------------------------------------
E|----------------------------------------------------------

               1~~~~~~~             1/2~~~~ 
e|-15~~~~~~~---/--------12-----------/---------------------
B|----------15/------------15~12--15/-------(15)~~~~12------
G|-----------------------------------------------------15~12
D|----------------------------------------------------------
A|----------------------------------------------------------
E|----------------------------------------------------------
       
      1/2             Repeat 8x      1               
e|-----/------------   12----------/----------------------
B|----/-------------   --15~12--15/--15--------------------
G|-15/---(15)~~~~~~--   ------------------------------------
D|-------------------   ------------------------------------
A|-------------------   ------------------------------------
E|-------------------   ------------------------------------
                      
                                                1~~~
e|------15-12------15~12--17~12--15~12----------/---12------
B|-15~12------15~12-------------------15~12--15/------15~12-
G|----------------------------------------------------------
D|----------------------------------------------------------
A|----------------------------------------------------------
E|----------------------------------------------------------

e|-------------------12----------12--------12----------12---
B|----12-16-12----12----12----12----12--12----12----12---12-
G|-14----------15----------15--------------------15---------
D|----------------------------------------------------------
A|----------------------------------------------------------
E|----------------------------------------------------------
 
            1         1 1/2                            1~~~ 
e|---------/ ----------/---------14------------------/----
B|--12----/---------15/---(15)~12---13---15----------/-----
G|-----14/---(14)~12--------------------12---13----14/------
D|----------------------------------------------12----------
A|----------------------------------------------------------
E|----------------------------------------------------------


e|-/16----/16----/16----/16---------------------------------
B|-/15----/15----/15----/15---------------------------------
G|----------------------------------------------------------
D|----------------------------------------------------------
A|----------------------------------------------------------
E|----------------------------------------------------------


Текст, аккорды и табулатура для песни "Gets Me Through", исполняет "Osbourne Ozzy".
Используемые в песне аккорды можно найти в разделе Как брать аккорды. Аккорды для шестиструнной гитары. Другие песни можно найти на нашем сайте, воспользовавшись алфавитным указателем вверху страницы.


 
Ошибка в тексте? Выделите ошибку и нажмите Ctrl+Enter