KEY:
X    Mute string
(6)  Ghost note
6h9  Hammer on note
9p6  Pull-off note
6s9  Slide to note
/   Slide up to/down from infinity
6b9  Bend to note
6b^  Bend a half note up
9r6  Release to note
  Play note while bent
^^   Hold bend
~~   Vibrato

Intro is on piano, guitar arranged for piano

e||--------------------------|
B||-----10-10-8-8-7-----7-7--|
G||-----7--7--7-7-7-9-9-7-7--|
D||---0-------------0-0------|x2
A||-0------------------------|
E||--------------------------|

e||--------------------------|-------------------------|
B||--------------------------|-------------------------|
G||-6-6-6-6-----3-3-3-3------|-6-6-6-6-----3-3-3-3-----|
D||-6-6-6-6-----3-3-3-3------|-6-6-6-6-----3-3-3-3-----|
A||-4-4-4-4-----1-1-1-1------|-4-4-4-4-----1-1-1-1-----|
E||--------------------------|-------------------------|

e||--------------------------|-------------------------|
B||--------------------------|-------------------------|
G||-6-6-6-6-----8-8-8-8------|-------------------------|
D||-6-6-6-6-----8-8-8-8------|-6-6-6-6-----6-6-6-6-----|
A||-4-4-4-4-----6-6-6-6------|-6-6-6-6-----6-6-6-6-----|
E||--------------------------|-4-4-4-4-----4-4-4-4-----|

x2

Chorus:
e||--------------------------|-------------------------|
B||--------------------------|-------------------------|
G||-6-6-6-6-----3-3-3-3------|-------------------------|
D||-6-6-6-6-----3-3-3-3------|-3-3-3-3-----6-6-6-6-----|
A||-4-4-4-4-----1-1-1-1------|-3-3-3-3-----6-6-6-6-----|
E||--------------------------|-1-1-1-1-----4-4-4-4-----|


Verse again:

e||--------------------------|-------------------------|
B||--------------------------|-------------------------|
G||-6-6-6-6-----3-3-3-3------|-6-6-6-6-----3-3-3-3-----|
D||-6-6-6-6-----3-3-3-3------|-6-6-6-6-----3-3-3-3-----|
A||-4-4-4-4-----1-1-1-1------|-4-4-4-4-----1-1-1-1-----|
E||--------------------------|-------------------------|

e||--------------------------|-------------------------|
B||--------------------------|-------------------------|
G||-6-6-6-6-----8-8-8-8------|-------------------------|
D||-6-6-6-6-----8-8-8-8------|-6-6-6-6-----6-6-6-6-----|
A||-4-4-4-4-----6-6-6-6------|-6-6-6-6-----6-6-6-6-----|
E||--------------------------|-4-4-4-4-----4-4-4-4-----|

and

Chourus:
e||--------------------------|-------------------------|
B||--------------------------|-------------------------|
G||-6-6-6-6-----3-3-3-3------|-------------------------|
D||-6-6-6-6-----3-3-3-3------|-3-3-3-3-----6-6-6-6-----|
A||-4-4-4-4-----1-1-1-1------|-3-3-3-3-----6-6-6-6-----|
E||--------------------------|-1-1-1-1-----4-4-4-4-----|
x2

Stick
e||--------------------------|-------------------------|
B||--------------------------|-------------------------|
G||-8-8-8-8------------------|-8-8-8-8-----------------|
D||-8-8-8-8-----6-6-6-6------|-8-8-8-8-----6-6-6-6-----|
A||-6-6-6-6-----6-6-6-6------|-6-6-6-6-----6-6-6-6-----|
E||-------------4-4-4-4------|-------------4-4-4-4-----|
x2

And then solo.
The solo isn't exactly right but it sound OK to me! =)

e||-------------------------|-------------------------|
B||--------6~~--------------|-------6-7-9-11-6~~-6p4--|
G||---6-8-6-----6-8---------|-6-8-6------------------6|
D||-----------------8~------|-------------------------|
A||-------------------------|-------------------------|
E||-------------------------|-------------------------|

e||-9-11-13-13-14-16-18-13~-|-13-13-13-13-13----------|
B||-------------------------|---------------13-11-13~-|
G||-------------------------|-------------------------|
D||-------------------------|-------------------------|
A||-------------------------|-------------------------|
E||-------------------------|-------------------------|

e||-------------------------|---------------------13~-|
B||-13-13--9~---------------|----------------11h13----|
G||-------------------------|-----------11h13---------|
D||-------------------------|------11h13--------------|
A||-------------------------|-11h13-------------------|
E||-------------------------|-------------------------|


Verse again:

e||--------------------------|-------------------------|
B||--------------------------|-------------------------|
G||-6-6-6-6-----3-3-3-3------|-6-6-6-6-----3-3-3-3-----|
D||-6-6-6-6-----3-3-3-3------|-6-6-6-6-----3-3-3-3-----|
A||-4-4-4-4-----1-1-1-1------|-4-4-4-4-----1-1-1-1-----|
E||--------------------------|-------------------------|

e||--------------------------|-------------------------|
B||--------------------------|-------------------------|
G||-6-6-6-6-----8-8-8-8------|-------------------------|
D||-6-6-6-6-----8-8-8-8------|-6-6-6-6-----6-6-6-6-----|
A||-4-4-4-4-----6-6-6-6------|-6-6-6-6-----6-6-6-6-----|
E||--------------------------|-4-4-4-4-----4-4-4-4-----|


Chorus:
e||--------------------------|-------------------------|
B||--------------------------|-------------------------|
G||-6-6-6-6-----3-3-3-3------|-------------------------|
D||-6-6-6-6-----3-3-3-3------|-3-3-3-3-----6-6-6-6-----|
A||-4-4-4-4-----1-1-1-1------|-3-3-3-3-----6-6-6-6-----|
E||--------------------------|-1-1-1-1-----4-4-4-4-----|

many times and the intro as ending...


Текст, аккорды и табулатура для песни "Dreamer", исполняет "Osbourne Ozzy".
Используемые в песне аккорды можно найти в разделе Как брать аккорды. Аккорды для шестиструнной гитары. Другие песни можно найти на нашем сайте, воспользовавшись алфавитным указателем вверху страницы.


 
Ошибка в тексте? Выделите ошибку и нажмите Ctrl+Enter