Artist: Ozzy Osbourne

Title: Dreamer

Album: Down to Earth

Tabbed by: Matt Walker

E-mail: [email protected]

Notes

~	Vibrato
7b9	Bend to note
7h9	Hammer on note
(8) Ghost note
9p6	Pull-off note

Intro (when Ozzy begins to sing)


e ||-------------------------------------------------|
B ||-------------------------------------------------|
G ||---6-6-6-6-----3-3-3-3-----6-6-6-6------3-3-3-3--|
D ||---6-6-6-6-----3-3-3-3-----6-6-6-6------3-3-3-3--|
A ||---4-4-4-4-----1-1-1-1-----4-4-4-4------1-1-1-1--|
E ||-------------------------------------------------|

e ||----------------------------------------------------|
B ||----------------------------------------------------|
G ||-----6-6-6-6-------8-8-8-8--------------------------|
D ||-----6-6-6-6-------8-8-8-8-----6-6-6-6-----6-6-6-6--|
A ||-----4-4-4-4-------6-6-6-6-----6-6-6-6-----6-6-6-6--|
E ||-------------------------------4-4-4-4-----4-4-4-4--|

(Repeat)

Chorus:-
e ||-----------------------------------------------------|
B ||-----------------------------------------------------|
G ||---6-6-6-6-----3-3-3-3-------------------------------|
D ||---6-6-6-6-----3-3-3-3---------3-3-3-3------6-6-6-6--|
A ||---4-4-4-4-----1-1-1-1---------3-3-3-3------6-6-6-6--|
E ||-------------------------------1-1-1-1------4-4-4-4--|

Verse (Again!)

e ||--------------------------------------------------|
B ||--------------------------------------------------|
G ||---6-6-6-6------3-3-3-3-----6-6-6-6------3-3-3-3--|
D ||---6-6-6-6------3-3-3-3-----6-6-6-6------3-3-3-3--|
A ||---4-4-4-4------1-1-1-1-----4-4-4-4------1-1-1-1--|
E ||--------------------------------------------------|

e ||---------------------------------------------------|
B ||---------------------------------------------------|
G ||-----6-6-6-6-------8-8-8-8-------------------------|
D ||-----6-6-6-6-------8-8-8-8----6-6-6-6-----6-6-6-6--|
A ||-----4-4-4-4-------6-6-6-6----6-6-6-6-----6-6-6-6--|
E ||------------------------------4-4-4-4-----4-4-4-4--|

Chorus:

e ||-----------------------------------------------------|
B ||-----------------------------------------------------|
G ||---6-6-6-6-----3-3-3-3-------------------------------|
D ||---6-6-6-6-----3-3-3-3---------3-3-3-3------6-6-6-6--|
A ||---4-4-4-4-----1-1-1-1---------3-3-3-3------6-6-6-6--|
E ||-------------------------------1-1-1-1------4-4-4-4--|

(REPEAT)

Riff before Solo:

e ||----------------------------------------------|
B ||----------------------------------------------|
G ||-----8-8-8-8--------------8-8-8-8-------------|
D ||-----8-8-8-8---6-6-6-6----8-8-8-8----6-6-6-6--|
A ||-----6-6-6-6---6-6-6-6----6-6-6-6----6-6-6-6--|
E ||---------------4-4-4-4---------------4-4-4-4--|


Solo:

e ||------------------------------------------------------------------|
B ||--------------6 ~ ~ ----------------------6-7-9-11-6 ~ ~ -6p4-----|
G ||------6-8-6-----------6-8--------6-8-6--------------------------6-|
D ||-----------------------------8------------------------------------|
A ||------------------------------------------------------------------|
E ||------------------------------------------------------------------|


e  ||-------------9-11-13-14-16-18-13 ~ -------13-13-13-13-13-------------------------|
B ||---------------------------------------------------------------------13-11-13 ~ --|
G ||----------------------------------------------------------------------------------|
D ||----------------------------------------------------------------------------------|
A ||----------------------------------------------------------------------------------|
E ||----------------------------------------------------------------------------------|

e ||------------------------------------------------------------------------13 ~ --|
B ||----13-13-9 ~ ----------------------------------------------11h13--------------|
G ||---------------------------------------------------------11h13-----------------|
D ||--------------------------------------------------11h13------------------------|
A ||------------------------------------------11h13--------------------------------|
E ||-------------------------------------------------------------------------------|

(The solo isn't 100% correct, but v. Close! If u can get better, mail it to me)



Verse (Again!)

e ||-----------------------------------------------------|
B ||-----------------------------------------------------|
G ||---6-6-6-6------3-3-3-3-----6-6-6-6------3-3-3-3-----|
D ||---6-6-6-6------3-3-3-3-----6-6-6-6------3-3-3-3-----|
A ||---4-4-4-4------1-1-1-1-----4-4-4-4------1-1-1-1-----|
E ||-----------------------------------------------------|

e ||-----------------------------------------------------|
B ||-----------------------------------------------------|
G ||-----6-6-6-6-------8-8-8-8---------------------------|
D ||-----6-6-6-6-------8-8-8-8----6-6-6-6-----6-6-6-6----|
A ||-----4-4-4-4-------6-6-6-6----6-6-6-6-----6-6-6-6----|
E ||------------------------------4-4-4-4-----4-4-4-4----|


THEN

Chorus:

e ||-----------------------------------------------------|
B ||-----------------------------------------------------|
G ||---6-6-6-6-----3-3-3-3-------------------------------|
D ||---6-6-6-6-----3-3-3-3---------3-3-3-3------6-6-6-6--|
A ||---4-4-4-4-----1-1-1-1---------3-3-3-3------6-6-6-6--|
E ||-------------------------------1-1-1-1------4-4-4-4--|

(Repeat this as many times as needed then play the intro??.)

Outro

e ||----------------------------------------------------|
B ||----------------------------------------------------|
G ||---6-6-6-6-----3-3-3-3-----6-6-6-6------3-3-3-3-----|
D ||---6-6-6-6-----3-3-3-3-----6-6-6-6------3-3-3-3-----|
A ||---4-4-4-4-----1-1-1-1-----4-4-4-4------1-1-1-1-----|
E ||----------------------------------------------------|

e ||----------------------------------------------------|
B ||----------------------------------------------------|
G ||-----6-6-6-6-------8-8-8-8--------------------------|
D ||-----6-6-6-6-------8-8-8-8-----6-6-6-6-----6-6-6-6--|
A ||-----4-4-4-4-------6-6-6-6-----6-6-6-6-----6-6-6-6--|
E ||-------------------------------4-4-4-4-----4-4-4-4--|

*You can improvise the outro, but I'm really lazy, so I play it like above!


Enjoy!

Matt Walker


Текст, аккорды и табулатура для песни "Dreamer", исполняет "Osbourne Ozzy".
Используемые в песне аккорды можно найти в разделе Как брать аккорды. Аккорды для шестиструнной гитары. Другие песни можно найти на нашем сайте, воспользовавшись алфавитным указателем вверху страницы.


 
Ошибка в тексте? Выделите ошибку и нажмите Ctrl+Enter