Ozzy - Dreamer
Album: Down To Earth
Tabbed by: Skull Dragon

From: www.BlackLabelSociety.net


Dropped Db tuning

Db Ab Ab Gb Bb Eb


Piano arranged for guitar

eb---------------------------------------------------
Bb---------------------------------------------------
Gb------------7-7--5-5-------------------------------
Db----------------------9-9--7-7--9-9----------------
Ab--0------------------------------------------------
Db-----0---------------------------------------------

or

eb---------------------------------------------------
Bb---------------------------------------------------
Gb---------------------------------------------------
Db---------------------------------------------------
Ab--0-------5-5---3-3---2-2---0-0---2-2--------------
Eb-----0---------------------------------------------

Play either one 2 times


Begining after piano:

Gazing through the window at the world outside...

eb--------------------------|-------------------------
Bb--------------------------|-------------------------
Gb-7-7-7-7-----4-4-4-4------|-7-7-7-7-----4-4-4-4-----
Db-7-7-7-7-----4-4-4-4------|-7-7-7-7-----4-4-4-4-----
Ab-5-5-5-5-----2-2-2-2------|-5-5-5-5-----2-2-2-2-----
Db--------------------------|-------------------------

Hoping that mankind will stop abusing her....

eb--------------------------|-------------------------
Bb--------------------------|-------------------------
Gb-7-7-7-7-----9-9-9-9------|--2-2-2-2-----2-2-2-2----
Db-7-7-7-7-----9-9-9-9------|--2-2-2-2-----2-2-2-2----
Ab-5-5-5-5-----7-7-7-7------|--0-0-0-0-----0-0-0-0----
Db--------------------------|-------------------------


Im just a Dreamer....

eb--------------------------|-------------------------
Bb--------------------------|-------------------------
Gb-7-7-7-7-----4-4-4-4------|--7-7-7-7-----2-2-2-2----
Db-7-7-7-7-----4-4-4-4------|--7-7-7-7-----2-2-2-2----
Ab-5-5-5-5-----2-2-2-2------|--5-5-5-5-----0-0-0-0----
Db--------------------------|-------------------------

Repeat 2xYour higher power might be....

eb-------------------------
Bb-------------------------
Gb--9-9-9-9-----2-2-2-2----
Db--9-9-9-9-----2-2-2-2----
Ab--7-7-7-7-----0-0-0-0----
Db-------------------------

Repeat 4x


Solo:

eb--------------------------|-------------------------
Bb--------------------------|------------------12-----
Gb-----7-9-11-7-9----------|-----7-9-11-12-14----11--
Db--/9-------------9--------|--/9---------------------
Ab--------------------------|-------------------------
Db--------------------------|-------------------------

eb--------12--14-15-17-19----|--12---------------------
Bb-----15-----------------19-|--15^--15^-15-12---------
Gb--14-----------------------|-----------------14------
Db---------------------------|-------------------------
Ab---------------------------|-------------------------
Db---------------------------|-------------------------

^ = bend half step up

eb-----------------------------------12-14-15~---
Bb--------------------------12-13-15-------------
Gb----------------11-12-14-----------------------
Db----------12-14--------------------------------
Ab-12-14-15--------------------------------------
Db-----------------------------------------------


p.s
ozzy rules!!!!


===============================================================dreamer     
tabbed by barrett moore
ozzy osborne
down to earth

lead guitar: zakk wylde

1---------------------------------------------9-11-11^13-14-
2-------------------------------7-9-9b^6~~~-9---------------
3---6-8-8b-r-6-6b^3~~----6-8-8b-----------------------------
4-6--------------------6------------------------------------
5-----------------------------------------------------------
6-----------------------------------------------------------

-16-18-----------------------------------------------------
-------17b--17b-17b----------------------------------------
---------------------16br-14h16b-13~~----------10-11-13-15-
--------------------------------------11-13-15-------------
-----------------------------------------------------------
-----------------------------------------------------------

----------11-12b~~~~~~~-
-11-13-14---------------
------------------------
------------------------
------------------------
------------------------


Текст, аккорды и табулатура для песни "Dreamer", исполняет "Osbourne Ozzy".
Используемые в песне аккорды можно найти в разделе Как брать аккорды. Аккорды для шестиструнной гитары. Другие песни можно найти на нашем сайте, воспользовавшись алфавитным указателем вверху страницы.


 
Ошибка в тексте? Выделите ошибку и нажмите Ctrl+Enter