Ozzy Osbourne - Demon Alcohol
Tabbed By: rap_boy
EMail: [email protected]


Tune down 1/2 step: Eb Ab Db Gb Bb Eb            

|-------------------------------------------|-------------------------|
|-------------------------------------------|-------------------------|
|------------------------------------------.|-------------------------|
|-7-5-7------------------------------------.|--7-5-7------------------|
|-5-3-5--3-------5ph--3-------5ph--3--------|--5-3-5--3---------------|
|----------5-4-5--------5-4-3--------5-4-3--|-----------5-4-3-3hold---|

|---------------------------------------------------------------------|
|---------------------------------------------------------------------|
|---------------------------------------------------------------------|
|-7-5-7-------7-5-7-------7-5-7-------7-5-7-------5-5-7-------7-5-7---|
|-5-3-5--5555-5-3-5--5555-5-3-5--5555-5-3-5--5555-3-3-5--5555-5-3-5---|
|---------------------------------------------------------------------|

|-------------------------------------------------------------------------------|
|-------------------------------------------------------------------------------|
|-------------------------------------------------------------------------------|
|-----------------5-7-----5-7--5-5-5-3-3-3-5-5-5--7------5-7--5-5-5-3-3-3-5-5-5-|
|-3-------3-------3-5-7-5-3-5--3-3-3-1-1-1-3-3-3--5--7-5-3-5--3-3-3-1-1-1-3-3-3-|
|---5-4-3---5-4-3-----5-3----------------------------5-3------------------------|

|---------------------------|
|-I'm your Demon Alcohol...-|
|---------------------------|
|--7------------------------|  Repeat from beginning of song
|--5hold--------------------|  then read from '2nd time'
|---------------------------|

2nd Time
|---------------------------|
|-I'm your Demon Alcohol...-|
|---------------------------|
|-7-------------------------|
|-5hold---------------------|
|---------------------------|



Текст, аккорды и табулатура для песни "Demon Alcohol", исполняет "Osbourne Ozzy".
Используемые в песне аккорды можно найти в разделе Как брать аккорды. Аккорды для шестиструнной гитары. Другие песни можно найти на нашем сайте, воспользовавшись алфавитным указателем вверху страницы.


 
Ошибка в тексте? Выделите ошибку и нажмите Ctrl+Enter