-------------------------------------------------------------------------------
			     Dee - Ozzy Osbourne
-------------------------------------------------------------------------------

Tabbed by:Seth Munoz
Email:[email protected]

Tuning:Standard-E,A,D,G,B,E
                                               ****
e|------7----------3h5-7---|--5-------------|-----7--------------------------|
B|--------------3----------|--0-------------|----7---------------------------|
G|-------------------------|----------------|---7----------------------------|
D|------5------------------|--0-------------|--7-----------------------------|
A|-------------------------|----------------|--------------------------------|
E|-------------------------|----------------|--------------------------------|

e|------7---------------7------|---10--------------10------|------------12---|
B|---------------7-------------|------------8-----------8--|---------10------|
G|------------7-----7------7---|---------7-----7-----------|-------9---------|
D|------9----------------------|---9-----------------------|--9/11-----------|
A|-----------------------------|---------------------------|-----------------|
E|-----------------------------|---------------------------|-----------------|

e|-----12------------|--7------------7---|-----------------|-----------------|
B|-------------------|----------7h8------|--10-------------|--8-----------8--|
G|-------------------|-------7-----------|-----------------|----------6------|
D|----(11)-----------|-------------------|-----------------|-----------------|
A|-------------------|--10---------------|--9--------------|--7--------------|
E|-------------------|-------------------|-----------------|-----------------|

e|--------------------|--0------------0-------|------------------------------|
B|-----7----5----3----|----------0------------|--5p3----------3--------------|
G|--------------------|-----------------------|-----------6------------------|
D|--------------------|-----------------------|------------------------------|
A|-----5----4----2----|-----------------------|--0---------------------------|
E|--------------------|--3--------------------|------------------------------|

e|-----------------------------|--0---------------------5h7p5p3--------------|
B|-----3----------------3------|------------------------7h8p7p5--------------|
G|------------------2-------2--|----------------2----------------------------|
D|-----4-------4---------------|-(4)-----------------------------------------|
A|-----------------------------|---------------------------------------------|
E|-----------------------------|---------------------------------------------|

e|-----2------------2-----|-----------------0---2--|--3----------------------|
B|---------------0-----0--|-(0)---------0----------|-------------0-----------|
G|------------2-----------|---------2--------------|---------0---0---0-------|
D|-----1------------------|------------------------|------2-------------2----|
A|------------------------|--2---------------------|-------------------------|
E|------------------------|-----------------0---2--|--0----------------------|
                                                 * * * *
e|-----3p2----2p0--------0--|-----------------|--------12--------------------|
B|-------------------3------|--2----------3---|------12----------------------|
G|--------------------------|---------0-------|----12------------------------|
D|--------------------------|-----------------|--12--------------------------|
A|--------------------------|--0--------------|-----------(0)----------------|
E|----(0)-----4-------------|-----------------|------------------------------|

e|------------------------------|-------------2----3----5h7p5----------------|
B|------------------------------|-------------3----5----7--------------------|
G|-----2h4p2p0------------------|--------------------------------------------|
D|--------------4p2p0-----------|--0-----------------------------------------|
A|---------------------4p2p0----|--------------------------------------------|
E|------------------------------|--------------------------------------------|

e|-------------------0------|-----------2-----3-----5-----7h9p7--------------|
B|-----3----------3---------|-----------3-----5-----7------------------------|
G|-------------0------------|------------------------------------------------|
D|--------------------------|--0---------------------------------------------|
A|-----2--------------------|------------------------------------------------|
E|--------------------------|------------------------------------------------|

e|-------------------------|---5-p3p2----3-p2p0----2p0-----------------------|
B|-----2-------------3p0---|-------------------------------------------------|
G|--------------0----------|-------------------------------------------------|
D|-----2-------------------|---0---------------------------------------------|
A|-----0-------------------|-------------------------------------------------|
E|-------------------------|-------------------------------------------------|

e|-----2p0---------0-------|-------------------------|-----------------------|
B|-------------3-------5--|--3---5---2----3----3/5--|--2---------3----------|
G|-------------------------|-------------------------|--0--------------------|
D|-------------------------|-------------------------|--------0--------------|
A|-----4-------------------|--2---p---0--------------|--0--------------------|
E|-------------------------|-------------------------|-----------------------|
                                                              ****
e|----------------------|-----------7--p--5------|--5--p--3------7-----------|
B|-----3----------------|-----------8--p--7------|--7--p--5-----7------------|
G|-----------2----------|------------------------|-------------7-------------|
D|----------------0-----|------------------------|------------7--------------|
A|----------------------|--2p0-------------------|--4------------------------|
E|-----2----------------|-----------0------------|---------------------------|

Thats 100% correct.

| /  slide up
|   slide down
| h  hammer-on
| p  pull-off
| ~  vibrato
| +  harmonic
| x  Mute note
| *  open harmonics


Текст, аккорды и табулатура для песни "Dee", исполняет "Osbourne Ozzy".
Используемые в песне аккорды можно найти в разделе Как брать аккорды. Аккорды для шестиструнной гитары. Другие песни можно найти на нашем сайте, воспользовавшись алфавитным указателем вверху страницы.


 
Ошибка в тексте? Выделите ошибку и нажмите Ctrl+Enter