Tuning: standard
tempo : 48
                             +
e|--7------------7-----5-----------7-------7----10-----------10--------------|
B|----------7h8--------------7-----------7----------8-----8------------------|
G|--------7------------4-----7---------7---------------7---------------------|
D|---------------------0-----7-----9-------------9------------------911-----|
A|--10-----------------------------------------------------------------------|
E|---------------------------------------------------------------------------|

e|-----------12/11---12-----7-----------7------------------------------------|
B|-------10-------------------------7h8-----10----8--------8---7---5---3-----|
G|----9--------------------------7--------------------6----------------------|
D|-------------------11------------------------------------------------------|
A|--------------------------10--------------9-----7------------5---4---2-----|
E|---------------------------------------------------------------------------|

e|---0--------------------------------------------0--------2h3p2p0-----2-----|
B|------------5---5p3---2---3--3----------3------------3---------------------|
G|--------4----------------------------2-----2-------------------------------|
D|---------------------------------0--------------0--------------------1-----|
A|---------------------------------------------------------------------------|
E|---3-------------------------2------------------2--------------------------|
                                                                      +
e|---------2----------------0--------------3p2--2p0------0------------12-----|
B|------0------0---0----0-----------0-----------------3-----2-----3----------|
G|---2----------------------------0----0-----------------------0------12-----|
D|------------------------------2--------------------------------------------|
A|-----------------2----------------------------------------0----------------|
E|--------------------------3--------------0----4----------------------------|

e|---------------------------------2--3---5h7p5-----------0-----2--3--5------|
B|---------------------------------3--5-----------3-----3-------3--5--7------|
G|---2h4p2p4------------------------------------------0----------------------|
D|--------------4p2p0----------0-----------------------------0---------------|
A|---------------------4p2p0----------------------2--------------------------|
E|---------------------------------------------------------------------------|

e|--7h9p7------------0----5p3---3p2---2p0---2p0-----0-------------0----------|
B|---------2-------3------------------------------3-----5/3---3-------2p0----|
G|-------------0-------------------------------------------------------------|
D|------------------------0--------------------------------------------------|
A|---------0--------------------------------4-----------------2-------0------|
E|---------------------------------------------------------------------------|
                                                    +
e|-------------------------------------3p2---2p0-----------------------------|
B|--3/5---2-------3----3----------------------------7------------------------|
G|------------0-------------2-----------------------7------------------------|
D|------------------------------0-------------------7------------------------|
A|--------0------------------------2---------4-------------------------------|
E|---------------------2---------------0-------------------------------------|



| /  slide up
|   slide down
| h  hammer-on
| p  pull-off
| ~  vibrato
| +  harmonic
| x  Mute note


Текст, аккорды и табулатура для песни "Dee", исполняет "Osbourne Ozzy".
Используемые в песне аккорды можно найти в разделе Как брать аккорды. Аккорды для шестиструнной гитары. Другие песни можно найти на нашем сайте, воспользовавшись алфавитным указателем вверху страницы.


 
Ошибка в тексте? Выделите ошибку и нажмите Ctrl+Enter