Note: take word wrap off. Crazy Train By OZZY OSBOURNE off the album Blizzard Of Ozz

Intro                          3x  (I think)    then put in fill 1     fill 1
1|--(12)---|---------|-----------------|------------------|------------|---|
2|--(12)---|---------|o--------------- |------------------|------------|--o|
3|--(10)---|---------|-----------------|------------------|------------|---|
4|--(10)---|-- /-/-x-|o-----------  ---|------------------|------------|---|
5|--(x) - -|-  /-/-x-|-----4----5------|--4-------2-------|------------|--o|
6|--(x)- --|-- ------|2-2----2-----2---|-----2-------5 4--|5--4-2--0---|---|
                              main riff                                             fill 2
                 pm----   ------   ------    ----  2x   then   po    po     po   po
1|--2----0-------|-------------------------------------------|------------------------|
2|--3----0-------|o------5--------5---------3----------2----o|--420-------------------|
3|--2----1-------|-------6--------4------- -2------- --2-----|-------420--------------|
4|--0----2-------|o------7--------6---------4----------2-----|-------------420--------|
5|------ 2-------|---0000----0000-----0000----0000----------o|-------------------42---|
6|----- -0-------|-------------------------------------------|------------------------|
fill 3  (goes somewhere, I'm not really sure)
1|--------2-------------------------------------------------------|
2|------2--5^2-3^2---2--------------------------------------------|
3|----4^-----------5---5^2-4^2------------------------------------|
4|-----------------------------4^2-4^2----------------------------|
5|-------------------------------------4^3^2^3^2-----2^3^2^3^2----|
6|-----------------------------------------------5-------------5--|

2x first time w/fill 1         fill 1
1|-----------------------|---------------------(5)-|
2|o---------------------o|----------------(5)------|
3|--------------------5--|-----------(5)-----------|
4|o-4--2---4----------5-o|-----(5)-----------------|
5|--4--2---4----------3--|(5)----------------------|
6|--2--0---2----0-2-4----|-------------------------|

1|--------------------------------------------------------|
2|--------------------------------------------------------|
3|---2--2-2-----------------------------------------------|
4|---2--2-2-------2----2-----2--------4---X---4---X---4---|
5|---0--0-0-------2----2-----2--------4---X---4---X---4---|
6|------------4-2-0----0-----0--------2---X---2---X---2---|


1|-----------------------------------------------------------------------------|
2|-----------------------------------------------------------------------------|
3|---2--2-2------------------------------------2-------------------7----9------|
4|---2--2-2-------2----2-----2------4-----4----2---2----4-----4----7----9------|
5|---0--0-0-------2----2-----2------4-----4----0---2----4-----4----5----7------|
6|------------4-2-0----0-----0------2--0--2--------0----2--0--2----------------|

1|------------------------------------------------------
2|----------------------------------------3------5------
3|11--11---2--2-----------------11--11----2------4------
4|11--11---2--2-----2--2--------11--11----0------2------
5|9---9----0--0-----2--2--------9---9-------------------
6|--------------4-2-0--0--4^0---------------------------


  -GUITAR SOLO-
1|------------------------------------------------------------------------------
2|-14^10^7^10^14^10^7^10^14^10^7^10^14^10^7^10^14^10^7^10^15^10^7^10^15^10^7^10^
3|------------------------------------------------------------------------------
4|-t--p--p--h--t-p--p--h--t-p--p--h--t-p--p--h--t-p--p--h--t-p--p--h--t-p--p--h-
5|------------------------------------------------------------------------------
6|------------------------------------------------------------------------------
							^
						      ^b:1^
1|-----------------------------------------------------^------^-----------------
2|^15^10^7^10--9^12^9^12^9^12^9^12^97^10^7^10^7^10^7--|--10--|-----------------
3|---------------------------------sl.-----------------9------9-----------------
4|--t-p--p--h-----h-p--h-p--h-p--h-p----h-p--h-p--h-p---------------------------
5|------------------------------------------------------------------------------
6|------------------------------------------------------------------------------
	     b:1                b:1
	      ^                  ^
1|-17--16--14---|-----14--16--17--17------14--17^14-------14--------------------
2|-------------17--------------------------------p---17------17--14--15^14-15^14
3|----------------------------------------------------------------------------p-
4|------------------------------------------------------------------------------
5|------------------------------------------------------------------------------
6|------------------------------------------------------------------------------
			     ^
			   ^b:1^
1|-------------------------^-------^-----------------------14^17^14^17^14^17^14/
2|-------------------------|--17---|-----------------14^17----h---p--h--p-h--p--
3|17^14--16^14------------16------16^14--------14^16----h-----------------------
4|---p------p----16^14---------------p------------h-----------------------------
5|------------------p-----------------------------------------------------------
6|------------------------------------------------------------------------------


1|/16^19^16/17^21^17^21^17^21^17^21^17^21^1716^19^16^19^16^19^1614^17^14^17^--
2|sl---h-p sl-------------------------------------------------------------------
3|------------------------------------------------------------------------------
4|------------------------------------------------------------------------------
5|------------------------------------------------------------------------------
6|------------------------------------------------------------------------------
		^
	      ^b:1^                           |--light P.M.------------------|
1|^14^17^14---^--17---^---------------------------------------------------------
2|-----------17------17-----17--14----------------------------------------------
3|-----------------------------------16--14------14--------------14-------------
4|-------------------------------------------16------16--14----------16--14-----
5|-----------------------------------------------------------16--------------16-
6|------------------------------------------------------------------------------


1|------------------------------------------------------------14--17^16^14------
2|---------------------------------------------------------17-------------------
3|14--13^14^13----16-14^13-------16---------------14-16/18----------------------
4|--------h--p-----------p----16------------14-16------sl-----------------------
5|-------------------------------------14-16------------------------------------
6|------------------------------------------------------------------------------
	       b:1   b:1
		^     ^
1|19^17--19^17---19----19----|
2|----p------p---------------|
3|---------------------------|             play riff B
4|---------------------------|
5|---------------------------|
6|---------------------------|

from here on out you can figure it out.


Текст, аккорды и табулатура для песни "Crazy Train (ver 8)", исполняет "Osbourne Ozzy".
Используемые в песне аккорды можно найти в разделе Как брать аккорды. Аккорды для шестиструнной гитары. Другие песни можно найти на нашем сайте, воспользовавшись алфавитным указателем вверху страницы.


 
Ошибка в тексте? Выделите ошибку и нажмите Ctrl+Enter