CRAZY TRAIN by Ozzy Osbourne 
tabbed by isthatmycow (aka Will Fuller)

regular tuning(low to high E)
T=finger tap
>=pick scrape
h=hammer
p=pull down
/=slide
b=bend 
~=let ring
BH=bend headstock or whammy bar
intro begins with bass
|-------------------------------------------------------20~
|-------------------------------------------------------17~
|----------------------------------------------------------
|----------------------------------------------------------
|-------0-0-------------5-5-------------0-0-------------5-5
|-2-2--------0-0--2-2--------0-0--2-2--------0-0--2-2------
                        lead comes in w/heavy distortion^

|-------
|-------
|-------
|-------
|-------
|--0-0--

lead (from where it comes in at the intro)
|-20~------------------------------------------------------
|-17~------------------------------------------------------
|----------------------------------------------------------
|----->----------------------------------------------------
|----->----------4---5---4---2-0---0-2-0---------4---5---4-
|----->------2-2---2---2---2-----4-------4-0-2-2---2---2---
 > = pick scrape

|----------------------------------------------------------
|----------------------------------------------------------
|----------------------------------------------------------
|----------------------------------------------------------
|---2-0---0-2-0---------4---5---4---2-0---0-2-0---------4--
|-2-----4-------4-0-2-2---2---2---2-----4-------4-0-2-2---2

|-----------------0-------
|-----------------0-------
|---------7-------9-------
|---------7-------9-------
|-5---4---5-------7-------
|---2---2-----------------

RHYTHM
|------------------------------0---------------------------
|------2-------5-------3-------2----------------2-------5--
|------2-------4-------2-------2------2---------2-------4--
|------2-------6-------4-------2------2---------2-------6--
|--0-0---0-0-0---0-0-0---0-0-0--------0--0--0-0---0-0-0---0
|---------------------------------3/4----------------------
                  
|-------------0---------------------
|-----3-------2---------------------
|-----2-------2---4p2p0-------------
|-----4-------2--------h4p2p0-------
|-0-0---0-0-0----------------h4p2p0-
|-----------------------------------
                  ~~~~~*sploof*~~~~

VERSES - rhythm without the sploof

PRECHORUS - (mental wounds not healing,ect.)
|----------------------------------------------------------
|----------------------7-7b1/2---------------3~------------
|---------------7~---7-----------------------2~------------
|---------------7~---------------------------0~-----0-0----
|-4---4--4-4----5~-------------4---4--4-4----0~---------4-2
|-2-0-2--2-2-0-----------------2-0-2--2-2-0----------------

CHORUS
|-----------------------------
|-----------------------------
|--2~-------------------------
|--2~--------------2~---------  ~fill~
|--0~--------------2~---------
|--------------4-2-0~-----4---
 goin    off   the rails 
~fill 1~
|--------2--------------------------------------------------
|------2---5p2-3p2---2--------------------------------------
|--4b6------------5---5p4p2---2-----------------------------
|----------------------------4---4-2---2--------------------
|------------------------------------4---4-3p2-3p2-3p2-3p2p0
|-----------------------------------------------------------

~fill 2~
|-5---9p5---10p6---11p7---11p8---12p9----13p10----14p11----
|---7-----7------8------9------9------10-------11-------12-
|----------------------------------------------------------
|----------------------------------------------------------
|----------------------------------------------------------
|----------------------------------------------------------

|-15p12----16p13----17p14----18p15--
|-------13-------14-------15--------
|-----------------------------------
|-----------------------------------
|-----------------------------------
|-----------------------------------

~fill 3~
|--------------------------------------------16------------
|-----------14-17p14-------15-18p15-------16----19p16------
|--16-16b18----------17b19----------18b20-------------19b21
|----------------------------------------------------------
|----------------------------------------------------------
|----------------------------------------------------------

|-------17----------------18-------------
|----17----20p17-------18----21p18-------
|-19-------------20b22-------------------
|----------------------------------------
|----------------------------------------
|-----------------------------------17/--

BRIDGE - (I know that things are goin wrong for me,ect.)
|--------------------------------------0-------------------
|--------------------------------------0-------------------
|--------2---------------------7-----9-9-----11-11-11/----2
|-4~/----2-----2----4-4-4~/----7-----9-9-----11-11-11/----2
|-4~/----0-----2----4-4-4~/----5-----7-7------9--9--9/----0
|-2~/-------4--0--0-2-2-2~/--------------------------------

|----------------------------0--
|----------------------------0--
|-------------11/----7-----9-9--
|-----2-------11/----7-----9-9--
|-0---2--------9/----5-----7-7--
|---4-0---0-0-------------------

SOLO(Randy Rhoads - the man)  
  T         T    T          T    T           T     T
|----------------------------------------------------------
|-14p7h10p7-14p7-14p10p7h10-14p7-14p10p7h10--14p10h14p10p7-
|----------------------------------------------------------
|----------------------------------------------------------
|----------------------------------------------------------
|----------------------------------------------------------
     T    T             T          T    T            T
|----------------------------------------------------------
|h10-15p7-15p7h10p7h10--15p10p7h10-15p7-15p7h10p7h10-15p10-
|----------------------------------------------------------
|----------------------------------------------------------
|----------------------------------------------------------
|----------------------------------------------------------
             T     T     T     T     T     T     T
|----------------------------------------------------------
|----------------------------------------------------------
|-11b13^V^V~-14p11h14p11h14p11h14p11h14p11h14p11h14-12p11--
|----------------------------------------------------------
|----------------------------------------------------------
|----------------------------------------------------------
  *bend 11 back and forth while tapping 14

|------------------17-16-14-------14-16-17-17b19--14h17p14-
|--------10-----------------17b19--------------------------
|-9-9b11----9b11-------------------------------------------
|----------------------------------------------------------
|----------------------------------------------------------
|----------------------------------------------------------

|----14----------------------------------------------------
|-17----17p15p14-15p14----14----------------17-17BH16BH17--
|----------------------16----16p14-16b18-16----------------
|----------------------------------------------------------
|----------------------------------------------------------
|----------------------------------------------------------

|-------------14h17p14h17p14h17p14h17p14h17p14h18p15h18p15-
|-------14h17----------------------------------------------
|-14h16----------------------------------------------------
|----------------------------------------------------------
|----------------------------------------------------------
|----------------------------------------------------------

|-18p16h20p17h21p17h21p17h21p17h21p17h21p17h21p17h21p17-19-
|----------------------------------------------------------
|----------------------------------------------------------
|----------------------------------------------------------
|----------------------------------------------------------
|----------------------------------------------------------

|p17p16p14-16h19p16h19p16-19p16h19p16h19p16h19p16-1415-14-
|----------------------------------------------------------
|----------------------------------------------------------
|----------------------------------------------------------
|----------------------------------------------------------
|----------------------------------------------------------

|----------17----------------------------------------------
|-17-17b19----17b19b17--15-14------------------------------
|-----------------------------16-14----------14----------14
|-----------------------------------16p14h16----16p14h16---
|----------------------------------------------------------
|----------------------------------------------------------

|----------------------------------------------------------
|----------------------------------------------------------
|----------14----------13h14p13h14-13h14p1314----16-------
|-16p14h16----16p14h16-------------------------16----------
|----------------------------------------------------------
|----------------------------------------------------------

|-------------------------------------------------------14-
|-------------------------------------------------14h17----
|----------------------------------------13h14h16----------
|----------------------11h12h14-13h14h15-------------------
|-------------12h14h16-------------------------------------
|-1112h14h16----------------------------------------------

|-----17h19-19b21-b21-19b21b19--
|-19---------------------------
|-------------------------------
|-------------------------------
|-------------------------------
|-------------------------------

OUTRO
|----------------------------------------0-----------------
|----------------------------------------0-----------------
|----------2----------------------7------9-----------------
|-4/-------2-----2--------4-------7------9-------4-4/------
|-4/-------0-----2--------4-------5------7-------4-4/------
|-2/----------2--0---4-0--2---0-------0------4-0-2-2/----0-

|-----------------------------------0----------------------
|-----------------------------------0----------------------
|--2------------------------7-------9---------11-11-----2--
|--2-------2--------4-------7-------9---------11-11-----2--
|--0-------2--------4-------5-------7----------9--9-----0--
|------4-2-0---4p0--2---0-------0-------4p0----------------

|-----0----------------
|-----0----------------
|-----1--------11-11/-- ~fade out~
|-----2--------11-11/--
|-0---2---------9--9/--
|---4-0---4-0----------


Текст, аккорды и табулатура для песни "Crazy Train", исполняет "Osbourne Ozzy".
Используемые в песне аккорды можно найти в разделе Как брать аккорды. Аккорды для шестиструнной гитары. Другие песни можно найти на нашем сайте, воспользовавшись алфавитным указателем вверху страницы.


 
Ошибка в тексте? Выделите ошибку и нажмите Ctrl+Enter