Tempo=138

       X        = muffled string    
       -------  = strings    
               = slide down guitar
       /        = slide up guitar
       I or |   = bars
       h        = hammer-on 
       pp       = pull-off
       t        = tap with right hand (pick hand)
       b        = bend to the note specified (1/2 note is the same as 1 fret)

-INTRO-
|----Riff-A------------------------------------------
F#5
----------------------------------------------------|
----------------------------------------------3---5-|
-11--11----2--2--------------------11-------2---4-|
-11--11----2--2--------2--2--------11-------0---2-|
-9---9-----0--0--------2--2--------9--------------|
------------------4--2--0--0--4^0-------------------|
				p          Play twice
----Riff-A-(cont.)-----------------------------------------------------------|
       b:1               b:1 b:1 b:1 b:1 b:1 b:1
   ^^^^^^^^^^^^^          ^   ^   ^   ^   ^   ^      ^^^^^^^^^^^^
--^-----------12--------(18)(18)(18)(18)(18)(18)----^-------------------------
-12----------------------10--10--10--10--10--10-----4-------------------------
-----------------------------pick harmonics------------------------0----/----
-----------------------------------------------------------------------/-----
----------------------------------------------------------------------/------
-------------------------------------------------------------------trem. bar--

|----Riff-B--------------------------- 

--------------------------------------|
--------------------------------------|
--------------------------------------|
--------------------------------------|
------4---5---4------2-0---0-2--------|
--2-2---2---2---2--------4-----4-2-0--|
	  Play 3 Times
-Riff-B-(cont.)-----------------------|
			D        E        A               E/A
--------------------|---2-------------|------------------------------|
--------------------|---3--------0----|----------5-------5-----------|
--------------------|---2--------1----|----------6-------4-----------|
--------------------|---0--------2----|----------7-------6-----------|
---------4---5---4--|------------2----|--0---0-0---0-0-0----0--0-0--0|
---2--2----2---2----|------------0----|------------------------------|
		       

   D/A      A                             E/A        D/A     A
--(5)-------------------|-----------------(7)-------|(5)-------------------|
---3--------2-----------|------5-----------5--------|-3------2---^---------|
---2--------2---------2-|------6-----------4--------|-2------2--420--^-----|
---4--------2---------3-|------7-----------6--------|-4------2------420---^|
----0-0-0-0-0---3/4-----|0-0-0---0--0--0-0---0-0-0-0|--0-0-0-0-----------42|
----------------sl------|---------------------------|------------pp--pp---p|



Crazy                   But thats how it goes
A    E/D    D/A   A             E/A  D/A   A

Millions of people      living as foes
     E/A    D/A   A             E/A   D/A   A

Maybe                   Its not too late
     E/A    D/A   A             E/A   D/A     A

To learn how to love     and forget how to hate
     E/A    D/A   A             E/A   D   A

   Mental Wounds not  healing      Driving   me   insane 
   F#5                D5           F#m               D5
1------------X(5)--X------------------------X(5)--X---------------------------
2------------X(5)--X------------------------X(5)--X---------------------------
3------------X(5)--X--7----7----------------X(5)--X---7----7------------------
4--4-----4---X(5)--X--7----7------4-----4---X(5)--X---7----7------------------
5--4-----4------------5----5------4-----4-------------5----5------------------
6--2--0--2------------------------2--0--2-------------------------------------

I'm going off the rails on a crazy train
    A5           E                  F#m
1-----------------------------------------------------------------------------
2-----------------------------------------------------------------------------
3---2--2-2--------------------------------------------------------------------
4---2--2-2-------2----2-----2--------4---X---4---X---4------------------------
5---0--0-0-------2----2-----2--------4---X---4---X---4------------------------
6------------4-2-0----0-----0--------2---X---2---X---2------------------------

Im going of the rails on a crazy train
   A5           E                 F#5         A   E5   F#5       D5   E5(II)
1-----------------------------------------------------------------------------
2-----------------------------------------------------------------------------
3---2--2-2------------------------------------2-------------------7----9------
4---2--2-2-------2----2-----2------4-----4----2---2----4-----4----7----9------
5---0--0-0-------2----2-----2------4-----4----0---2----4-----4----5----7------
6------------4-2-0----0-----0------2--0--2--------0----2--0--2----------------


I've listened to preachers    I've listened to fools
A        E/A     D/A   A           E/A    D/A     A

I've watched all the dropouts      who make their own rules
	 E/A     D/A   A           E/A    D/A     A

One person conditioned       to rule and control
	 E/A     D/A   A           E/A    D/A     A

The media sells it           and you live the role
	 E/A     D/A   A           E/A    D/A     A

Mental wounds not healing
 F#5               D5

Who and what's to blame?
F#5               D5           

I'm going off the rails on a crazy train
 A5              E                   F#5

I'm going of the rails on a crazy train
 A5              E                   F#5     A5  E5  F#5   D5  E5


-BRIDGE-
I know that things are going wrong for me
F#5      A5       E5          F#5       D5     E5
------------------------------------------------------------------------------
----------------------------------------3------5------------------------------
11--11---2--2-----------------11--11----2------4------------------------------
11--11---2--2-----2--2--------11--11----0------2------------------------------
9---9----0--0-----2--2--------9---9-------------------------------------------
--------------4-2-0--0--4^0---------------------------------------------------
			 p 

You gotta listen to my words, yeaaaaaah!
F#5       A5     E5    F#5    D5   E5


-GUITAR SOLO-
------------------------------------------------------------------------------
-14^10^7^10^14^10^7^10^14^10^7^10^14^10^7^10^14^10^7^10^15^10^7^10^15^10^7^10^
------------------------------------------------------------------------------
-t--p--p--h--t-p--p--h--t-p--p--h--t-p--p--h--t-p--p--h--t-p--p--h--t-p--p--h-
------------------------------------------------------------------------------
------------------------------------------------------------------------------
							^
						      ^b:1^
-----------------------------------------------------^------^-----------------
^15^10^7^10--9^12^9^12^9^12^9^12^97^10^7^10^7^10^7--|--10--|-----------------
---------------------------------sl.-----------------9------9-----------------
--t-p--p--h-----h-p--h-p--h-p--h-p----h-p--h-p--h-p---------------------------
------------------------------------------------------------------------------
------------------------------------------------------------------------------
	     b:1                b:1
	      ^                  ^
-17--16--14---|-----14--16--17--17------14--17^14-------14--------------------
-------------17--------------------------------p---17------17--14--15^14-15^14
----------------------------------------------------------------------------p-
------------------------------------------------------------------------------
------------------------------------------------------------------------------
------------------------------------------------------------------------------
			     ^
			   ^b:1^
-------------------------^-------^-----------------------14^17^14^17^14^17^14/
-------------------------|--17---|-----------------14^17----h---p--h--p-h--p--
17^14--16^14------------16------16^14--------14^16----h-----------------------
---p------p----16^14---------------p------------h-----------------------------
------------------p-----------------------------------------------------------
------------------------------------------------------------------------------


/16^19^16/17^21^17^21^17^21^17^21^17^21^1716^19^16^19^16^19^1614^17^14^17^--
sl---h-p sl-------------------------------------------------------------------
------------------------------------------------------------------------------
------------------------------------------------------------------------------
------------------------------------------------------------------------------
------------------------------------------------------------------------------
		^
	      ^b:1^                           |--light P.M.------------------|
^14^17^14---^--17---^---------------------------------------------------------
-----------17------17-----17--14----------------------------------------------
-----------------------------------16--14------14--------------14-------------
-------------------------------------------16------16--14----------16--14-----
-----------------------------------------------------------16--------------16-
------------------------------------------------------------------------------


------------------------------------------------------------14--17^16^14------
---------------------------------------------------------17-------------------
14--13^14^13----16-14^13-------16---------------14-16/18----------------------
--------h--p-----------p----16------------14-16------sl-----------------------
-------------------------------------14-16------------------------------------
------------------------------------------------------------------------------
	       b:1   b:1
		^     ^
19^17--19^17---19----19----|
----p------p---------------|
---------------------------|             play riff B
---------------------------|
---------------------------|
---------------------------|


Heirs or a cold war,      that's what we've become            
A      E/A    D/A   A                E/A D/A    A
		      
Inheriting troubles         I'm mentally numb
       E/A    D/A   A                E/A   D/A   A

Crazy,                     but what do I care?
       E/A  D/A  A                   E/A   D/A   A

I'm living with something   I don't want to share
       E/A  D/A  A                   E/A   D/A   A

Mental wounds not healing
  F#5               D5

Driving me insane     
F#5           D5             

I'm going off the rails on a crazy train
A5                E                F#5

I'm going off the rails on a crazy train
A5                E                F#5

-OUTRO-
Play Riff A


Текст, аккорды и табулатура для песни "Crazy Train", исполняет "Osbourne Ozzy".
Используемые в песне аккорды можно найти в разделе Как брать аккорды. Аккорды для шестиструнной гитары. Другие песни можно найти на нашем сайте, воспользовавшись алфавитным указателем вверху страницы.


 
Ошибка в тексте? Выделите ошибку и нажмите Ctrl+Enter