Band: Orgy
Song: Leave Me Out
Album: Punk Statik Paranoia
Tuning: Drop Db

Intro/Post-chorus/Post-interlude (lead)
Eb|------------------------------------------------|
Bb|------------------------------------------------|
Gb|------------------------------------------------|
Db|------------------------------------------------|
Ab|-------7---4-------2----------7--6--4-------2---|
Db|-6-------------------6--6---------------------6-|

Intro/Post-chorus/Post-interlude/Final Chorus (rhythem)
Eb|---------------------------------|
Bb|-----7-----7-----7-----7-----7---|   
Gb|-6-8---6-8---6-8---6-8---6-8---6-|    x4     
Db|---------------------------------|
Ab|---------------------------------|
Db|---------------------------------|

Pre-Chorus (lead)
Eb|-6-7-6-7---6-7-6-7-6-4-----6-7-6-7---6-7-6-1^-|
Bb|----------------------------------------------|
Gb|----------------------------------------------|      x2
Db|----------------------------------------------|
Ab|----------------------------------------------|
Db|----------------------------------------------|

Chorus (both)       x2
Eb|-----------------------------------------------------------------|
Bb|-----------------------------------------------------------------|
Gb|----------------4-4-----------------------4-4-4------------------|
Db|-6-6--6-6-6--5--4-4-2---2--6-6--6-6-6--5--4-4-4--2-2-2-2--2-2--2-|
Ab|-6-6--6-6-6--5--2-2-2---2--6-6--6-6-6--5--2-2-2--2-2-2-2--2-2--2-|
Db|-6-6--6-6-6--5------2---2--6-6--6-6-6--5---------2-2-2-2--2-2--2-|

2nd Verse (rhythem)
Eb|-----------------|
Bb|-----------------|
Gb|-4--4--4--6----1-|     x2
Db|-----------------|
Ab|-----------------|
Db|-----------------|

Pre-chorus (rhythem) (during 2nd pre-chorus only)
Eb|-----2----------2----------2----7----------1-|
Bb|-2----------2----------2---------------2-----|
Gb|---1----------1----------1---------------1---|
Db|---------------------------------------------|
Ab|---------------------------------------------|
Db|---------------------------------------------|

Interlude (lead)
Eb|-9--------------------14--13--9----10---9--------------|
Bb|---------9----7----------------------------10---9----7-|
Gb|-------------------------------------------------------|
Db|-------------------------------------------------------|
Ab|-------------------------------------------------------|
Db|-------------------------------------------------------|

Riff played during interlude (rhythem)
Eb|-----------------------------------------------------------|
Bb|-----------------------------------------------------------|
Gb|-6-------7-------4---------------6-------7-------4---------|
Db|-6-------7-------4-------4-------6-------7-------4-------5-|
Ab|-4-------5-------2-------4-------4-------5-------2-------5-|
Db|-------------------------4-------------------------------5-|

Outro (lead)
Eb|-6-7-6-7---6-7-6-7-6--4-|-----|
Bb|------------------------|-----|
Gb|------------------------|-----|
Db|------------------------|--6~-|
Ab|------------------------|--6~-|
Db|------------------------|--6~-|
           ^ x4             ^ x1

Outro (rhythem)
Eb|---------------------|----------------------------------------|
Bb|---------------------|---------7-----------7--------7---------|
Gb|---------4-----------|-6----8-----6----8-----6---8-----6----8-|
Db|-6----5--4----0----2-|----------------------------------------|
Ab|-6----5--2----0----2-|----------------------------------------|
Db|-6----5-------0----2-|----------------------------------------|
          ^ x2                             ^ x1


intro
pre-chorus (lead)
chorus (both)  x2
2nd verse (if playin rhythem)
pre-chorus (lead or rhythem)
chorus (both)  x3
interlude or rhythem riff
post-interlude
chorus (lead) or final chorus (rhythem)
outro


Текст, аккорды и табулатура для песни "Leave Me Out", исполняет "Orgy".
Используемые в песне аккорды можно найти в разделе Как брать аккорды. Аккорды для шестиструнной гитары. Другие песни можно найти на нашем сайте, воспользовавшись алфавитным указателем вверху страницы.


 
Ошибка в тексте? Выделите ошибку и нажмите Ctrl+Enter