Вступление: Riff1

Em	G	  Hm	Em
Когда цирковые уроды плясали,
Их насмерть тогда побивали камнями.
На солнышко когда собаки брехали,
Тогда колыбельную им пели няни

Припев:
Dm		   Am		
Когда человечество здесь станет лишним,
B		F
Услышишь тогда лягушачьи шаги
D		 Am
Тогда поспеши донести это ближним:
B		   Am
"Все люди сваливайте с земли!"

Все мертвые в землю - живые за стол,
Титанам заморыши руки крутили,
И жрали горстями тогда валидол,
И волосы драли тогда ноздревые.
Припев

Когда три слепышки кололи дровишки,
Глазишкам приделав горящие угли,
Тогда попрыгунчики без передышки
Скакали и превращалися в пули
Припев

Когда чтоб прокакаться надо молиться,
Когда утюжек вместо глажки ебет,
Когда включиться все само и зарядится,
Когда вместо будильника прозвенит крот.
Припев

Riff1:
        
E||--12--12--12-12-12-12---------------------|-------------------------------|
B||----------------------12--12--12-12-12-12-|----------------10-------------|
G||------------------------------------------|--12--12--12-12----12-9--------|
D||------------------------------------------|-------------------------------|
A||------------------------------------------|-------------------------------|
E||------------------------------------------|-------------------------------|


        
E||--12--12--12-12-12-12---------------------|-------------------------------|
B||----------------------12--12--12-12-12-12-|----------------10-------------|
G||------------------------------------------|--12--12--12-12----12-9--------|
D||------------------------------------------|-------------------------------|
A||------------------------------------------|-------------------------------|
E||------------------------------------------|-------------------------------|


       
E||--12--12--12--15--12--10--12--15--|--17--15------15------------|
B||----------------------------------|----------17------17--------|
G||----------------------------------|----------------------------|
D||----------------------------------|----------------------------|
A||----------------------------------|----------------------------|
E||----------------------------------|----------------------------|

      
E||------------------------------------------|--------------------------------|
B||--17--17--17-17-17-17---------------------|--------------------------------|
G||----------------------16--16--16-16-16-16-|----------------14-12-----------|
D||------------------------------------------|--17--17--17-17-------14--------|
A||------------------------------------------|--------------------------------|
E||------------------------------------------|--------------------------------|


Текст, аккорды и табулатура для песни "Люди сваливайте с земли", исполняет "Оргазм Нострадамуса".
Используемые в песне аккорды можно найти в разделе Как брать аккорды. Аккорды для шестиструнной гитары. Другие песни можно найти на нашем сайте, воспользовавшись алфавитным указателем вверху страницы.


 
Ошибка в тексте? Выделите ошибку и нажмите Ctrl+Enter