Tuning: D,G,C,F

0:13  2 times

----------------------------9---/11-------14-13---11p9------------------|
--------------------------9---9------9-11--------------11--11-11--------|
--------------------7h9-7----------------------------------------9------|
-2---2-2-2--2-0---7------------------------------------------------9----|
      . .

0:38  once

-------------------------------9---/11-------14-13---11p9------------------|
-----2h4b----2h4-------------9---9------9-11--------------11--11-11--------|
-----------------------7h9-7----------------------------------------9------|
-2--------2------0---7------------------------------------------------9----|

0:51  once
----------------------------9---/11-------14-13---11p9------------------|
-------4------------------9---9------9-11--------------11--11-11--------|
-----4--------------7h9-7----------------------------------------9------|
-2-------2--2-0---7------------------------------------------------9----|

1:04  once each

-----6------4h6-4---/13-13-11----------------------|
----6-----4--------------------14-13--13-13-11-10--|
-4-----2-------------------------------------------|
---------------------------------------------------|
      .

-----6------4h6-4---/13-13-11h13p11-13------|
----6-----4---------------------------------|
-4-----2------------------------------------|
--------------------------------------------|
      .

-----6------4h6-4---/13-13-11h13p11-------------------|
----6-----4-------------------------13--13-13-11-10---|
-4-----2----------------------------------------------|
------------------------------------------------------|
      .

1:23  once

-----6------4h6-4---/13-13-11h13p11-13------|
----6-----4---------------------------------|
-4-----2------------------------------------|
--------------------------------------------|
      .

1:29  once

-----6------4h6-4---------------------|
----6-----4------------7---7-----9-9--|
-4-----2-------------7---7------------|
-------------------5----------7-------|
      .                     .

1:36  once

-----6------4h6-4---------------------|
----6-----4------------7---7----------|
-4-----2-------------7---7------------|
-------------------5----------7--7-7--|
      .                     .

1:42  2 times

-----6------4h6-4--------------------|
----6-----4------------7---7---------|
-4-----2-------------7---7-----------|
-------------------5----------7------|
      .                     .

1:55  once

-----6------4h6-4---/13-13-11h13p11-------------------|
----6-----4-------------------------13--13-13-11-10---|
-4-----2----------------------------------------------|
------------------------------------------------------|
      .

2:02  once

-----6------4h6-4---/13-13-11h13p11-13------|
----6-----4---------------------------------|
-4-----2------------------------------------|
--------------------------------------------|
      .

2:08  once

-----6------4h6-4---/13-13-11h13p11-------------------|
----6-----4-------------------------13--13-13-11-10---|
-4-----2----------------------------------------------|
------------------------------------------------------|
      .

2:14  once

-----6------4h6-4---/13-13-11h13p11-13------|
----6-----4---------------------------------|
-4-----2------------------------------------|
--------------------------------------------|
      .

2:21  once each

----------4h6-4---------------------|
--------4-------------7---7---------|
-4--2---------------5---7-----------|
------------------5----------7------|
  .  .                     .

-----6------4h6-4--------------------|
----6-----4------------7---7---------|
-4-----2-------------5---7-----------|
-------------------5----------7------|
      .                     .

2:34  once

-----6------4h6-4---------------------|
----6-----4------------7---7-----9----|
-4-----2-------------5---7---------7--|
-------------------5----------7-------|
      .                     .

2:40  once

-----6------4h6-4---------------------|
----6-----4------------7---7----------|
-4-----2-------------5---7------------|
-------------------5----------7-------|
      .                     .

2:46  once

-----------------------------------------------------------|
-----------------------2-----------------------------------|
-/7------------0-2-5-2----------------7------------7-------|
-----0-------------------0---------0------------0----------|

3:11  ...

---------------------------------|
---------------------------------|
-3-------0-----------------------|
-----------------0-------0-------|

4:09  once

----------------------------------------|
----------------------------------------|
-2-3-----3-2-0---------------3-5--3-5---|
-------------------3-2-0--------------0-|

4:21 - 5:12 Pretty simple, so you can figure out by yourself.

5:13  4 times

-----9-9-9p7-7-7-6---9-9---|
-------------------9-------|
---------------------------|
-2-------------------------|

5:38

--------------------|
-----2-4-2h4p2------|
-2-4-----------2----|
-----------------2--| 1 time

-----9-9-9p7-7-7-6---9-9---|
-------------------9-------|
---------------------------|
-2-------------------------| 4 times

6:02  once

------------|
-----2-4--2-|
-2-4--------|
------------|

2 bass at once (10 times)

------9-9-9p7-7-7-6-4h6-6---|
----------------------------|
----------------------------|
--2-------------------------|
-                          -
----------------------------|
----------------------------|
------7-7-7p5-5-5-4-5h7-7---|
----------------------------|

7:06 obviously not to sure of this one (4 times)

-------------------------------------------------11-9-7p6-7------|
-------4-----4-------------------------4-----4-------------------|
-----------4-------4-4-4---4-4-4-----------4---------------------|
-2-2-2---2-----2-2-------2-------2-2-2---2-----2-----------------|
  . . . . . . . .   . . .   . . . . . . . . . . .

7:52  once

-11-9-7p6---------------------------|
------------------------------------|
----------5-5-5-5-5-5-5-6-7-7-7-7-7-|
------------------------------------|
           . . . . . . . . . . . . .

8:01 hard to tab, with variations here and there (3 times)

---------------------------------------6-7-9-7-6---6---------|
-4-----------------------------------------------9---7-6--7--|
---------2----22-------------------2-------------------------|
---2-2-2---------20--0-0---0-2-2-2---------------------------|
    . . . .     .             . . . .

8:46  once

--------------|
-4---2--------|
--------------|
--------------|

8:52 the 1st few times are a bit different then this (8 times)

-----------------------------------|
--------------------7---7-7--5-5---|
-7--9-910-----9--------------------|
----------10----10-----------------|

9:53  once

-----------------------|
----4---------2--4-----|
-4------------------2--|
-------2---------------|


Текст, аккорды и табулатура для песни "To Bid You Farewell", исполняет "Opeth".
Используемые в песне аккорды можно найти в разделе Как брать аккорды. Аккорды для шестиструнной гитары. Другие песни можно найти на нашем сайте, воспользовавшись алфавитным указателем вверху страницы.


 
Ошибка в тексте? Выделите ошибку и нажмите Ctrl+Enter