OPETH - The Apostle in Triumph
                            From the Album Orchid
                         Copyright 1995, Candlelight
                          Version 1.0 - august 2000

Transcribed by: Sperling Andor ([email protected])

For Questions, Comments, Newest Version, or Corrections contact me.

Check Out Death Warp, With More Transcriptions On It:
 http://tiger.towson.edu/~dalvis1

  key: h - hammer on
       p - pull off
       s - slide
       t - tremolo
     ... - echo
      () - silently
       X - repeat aX times

Tune Gtr to EADGBE - standard

OPETH - The Apostle in Triumph

  this track on the cd is 13:01 long but the concrete song begins at
  1:29 because of mastering fauliers so i tabbed the song not the track


 1:29 - 1:57  play 4 times (from the line only) - there is another guitar too
|-----|------------------------------------------------|
|-----|------------------------------------------------|
|-----|-----------------2---------4---5-4---2-2---4-4--|
|--4--|--2---5-5---4p2------5-4------------------------|
|--2--|------------------------------------------------|
|-----|--0---------------------------------------------|


 1:58 - 2:29  play 4 times (after the line is ending)
|------------------------------------------------|---------|
|------------------------------------------------|---------|
|-----------------2---------4---5-4---2-2---4-4--|--5-4----|
|--2---5-5---4p2------5-4------------------------|------4--|
|------------------------------------------------|---------|
|--0---------------------------------------------|---------|


 2:30 - 3:01  play 1 time
|-----------------------------------------------------------------|
|-----------------------------------------------------------------|
|------------------------------2---4---2-0---------------------2--|
|--5---4-2-4---2-0-2---4---5---------------4---2-0-2---4---5------|
|-----------------------------------------------------------------|
|-----------------------------------------------------------------|

|-----------------------------------------------------------------|
|-----------------------------------------------------------------|
|--4---2-0-2-----------------------2-----4---2-0-2----------------|
|--------------5-4-5---4---2-2---4---5----------------------------|
|-----------------------------------------------------------------|
|-----------------------------------------------------------------|

|-----------------------------------------------------------------|
|-----------------------------------------------------------------|
|----------------------2-----4------------------------------------|
|--5-4-5---4---2-2---4---5-------------2-2-2-2--------------------|
|--------------------------------3-2---2-2-2-2--------------------|
|--------------------------------------0-0-0-0--------------------|


 3:02 - 3:46  play 12 times (accompany for gtr.2)
|---------------------------|
|---------------------------|
|------4-----0-----2-5---4--| gtr.1
|----4-----2-----2----------|
|--2-----3-----3------------|
|---------------------------|


 3:16 - 3:46  play 1 time
|----------------------------------------------7--------------------|
|----------------------------------4---5---7-----7-8-7---5-7---4----|
|----4---0-2---4---5-4---2-4-----5-------------------------------4--| gtr.2
|--4----------------------------------------------------------------|
|-------------------------------------------------------------------|
|-------------------------------------------------------------------|

|--7-8-7-5---------------7-8-7-5---5-7------------------------------|
|--7-------7-5-7---5-7---7-------7-------7-7------------------------|
|--8---------------------8------------------------------------------| gtr.2
|-------------------------------------------------------------------|
|-------------------------------------------------------------------|
|-------------------------------------------------------------------|

|-------------------------------------------------------------------|
|--4-555--5-777--7-555--5-444--4---------------4--------------------|
|----------------------------------5---4---2---4--------------------| gtr.2
|-------------------------------------------------------------------|
|-------------------------------------------------------------------|
|-------------------------------------------------------------------|


 3:47 - 3:53  play 2 times
|----------------|
|----------------|
|----------------|
|--10-9-9-10--9--|
|--10-9-9-10--9--|
|--8--7-7-8---7--|


 3:54 - 4:06  play 1 time
|-----------------------------------------------------|
|-----------------------------------------------------|
|-----------------------------------------------------|
|------9---9---7-7h9-9---9-------7--------------------|
|--7h9---------------------9-7h9---9-7h9-10s9-7h9-10--|
|-----------------------------------------------------|

|-----------------------------------------------------|
|------------------------12-10-13---12-10-12-12-------|
|------9---9---8-9p8-8--------------------------------|
|--7h9------------------------------------------------|
|-----------------------------------------------------|
|-----------------------------------------------------|


 4:07 - 4:09  play 1 time
|-------------------------|
|-------------------------|
|-------------------------|
|-------------------------|
|------5---7---5---3h5-3--|
|--7h8--------------------|


 4:10 - 4:35  play 8 times (after the line only)
|-------|----------------|
|-------|----------------|
|-------|----------------|
|-------|--10-9-9-10--9--|
|--7h9--|--10-9-9-10--9--|
|-------|--8--7-7-8---7--|


 4:36 - 4:38  play 1 time
|-------------------------|
|-------------------------|
|-------------------------|
|-------------------------|
|------5---7---5---3h5-3--|
|--7h8--------------------|


 4:39 - 5:04 play 8 times (after the line only)
|-------|-------------------------------|
|-------|-------------------------------|
|-------|-------------------------------|
|-------|------9---7--7-7---------------|
|--5h7--|--9--------------10-10s9-9s10--|
|-------|-------------------------------|


 5:05 : 5:30  play 4 times
|-----------------------------------------|
|-----------------------------------------|
|----------------7-6---6-4-7-7-7s6-6s4-4--|
|--------7-9---9--------------------------|
|--9---9----------------------------------|
|-----------------------------------------|


 5:31 - 6:33  under construction


 6:34 - 7:17  play 7 times
|-------------------------------------|
|-------------------------------------|
|-------------------------------------|
|------------------8---8--------------|
|------------------------7-7---7-5----|
|--7---8-7-8---8-7-----------------8--|


 7:18 - 7:23  play 1 time
|--------------------------------------|
|--------------------------------------|
|---------------------------------6-6--|
|------------------8---8--6---5-5-6-6--|
|-------------------------6---5-5-4-4--|
|--7---8-7-8---8-7--------4---3-3------|


 7:25  synth starts...


 7:32 - 8:22  play 4 times  (played under the synth)
|------------------------------------------------------------|
|------------------------------------------------------------|
|------------------------------------------------------------|
|-------------------------------------6---5------------------|
|--5-----3---5---6-5--3-5-3-5-----5-----------6---5-----5----|
|------------------------------------------------------------|


 8:23 - 10:15  play 18 times (first one acoustic)
|--------------------3------------------------|
|--3---1-------1---3--------------------------| note: at 9:38 to 10:04
|--------3---0-----------0---2-3---------0-0--|       another guitar steps in
|----------------------------------3-3--------|       with a solo (no tab)
|---------------------------------------------|
|---------------------------------------------|


 10:16 - 10:53  play 6 times
|---------------------------------------------|
|---------------------------------------------|
|--7-5----------------------------------------|
|--7-5-7-------------------------5h7--5-------|
|--5-3-7---------3h5-8--6-6---6---------6--5--|
|------5-3---3-3------------------------------|


 10:54 -12:16  SOLO (need time to tab...)


 12:17 - 12:28  play 2 times
|-----------------------------------------------------|
|--------------------4------------1-------------------|
|-------0--------------0------------0-----------------|
|---------0-----1--1-----1----------------------------|
|-----------3----------------3--3-----3----------3-1--|
|--3--3-----------------------------------4--4-4------|


 12:29 - 12:47  play 3 times
|-----------------------------------------------------|
|-------3------------4------------1-------------------|
|---------0------------0------------0-----------------|
|-----------0---1--1-----1----------------------------|
|----------------------------3--3-----3----------3-1--|
|--3--3-----------------------------------4--4-4------|


 12:48 - 13:01  play 1 time
|------------------------------------------------------------------|
|-------3------------4------------1--------------------------------|
|---------0------------0------------0------------------------------| gtr.1
|-----------0---1--1-----1-----------------------------------------|
|----------------------------3--3-----3----------3-1---------------|
|--3--3-----------------------------------4--4-4-------------------|
|                                                                  |
|------------------------------------------------------------------|
|------------------------------------------------------------------|
|------------------------------------------------------------------| gtr.2
|-------------------------5h7--5-----------------------------------|
|--5--5-5-3-5-8--6-6---6---------6-5---5-3-------------3---5-s-10--|
|------------------------------------------5---3---5---------------|



 Check Out Death Warp, With More Transcriptions On It:
 http://tiger.towson.edu/~dalvis1
--------------------|
|-----------------------------|
|-----------------------------|


 16:36 - 17:25  SOLO (can't tab) + under construction


 17:26 - 18:06  play 12 times
|---------------------------|
|---------------------------|
|------7-----7-----8-7-5----|
|----7-----7-----8-------6--|
|--5-----5-----6------------|
|---------------------------|


 18:07 - 18:34  play 8 times
|---------------------------|
|---------------------------|
|------5-----5-----6-5-3----|
|----5-----5-----6-------4--|
|--3-----3-----4------------|
|---------------------------|


 18:36 - 19:01  play 4 times
|---------------------------------------------------|
|---------------------------------------------------|
|------7-----7-----8-7-5-------7-----7-----8-7-5----| gtr.1
|----7-----7-----8-------6---7-----7-----8-------6--|
|--5-----5-----6-----------5-----5-----6------------|
|---------------------------------------------------|
|                                                   |
|---------------------------------------------------|
|---------------------------------------------------|
|--7-----------------5------------------------------| gtr.2
|--------------------------7------------------------|
|---------------------------------------------------|
|---------------------------------------------------|


 19:02 - 20:14  (distorted guitar storms in and slowly fading out)
|---------|
|---------|
|---------| gtr.1
|--7---6--|
|--7---6--|
|--5---4--|


 19:16 - 20:14  (the another guitar fading out with this)
|-----------------------|
|--5---6---3---5--------|
|----------------5s4s2--| gtr.2
|-----------------------|
|-----------------------|
|-----------------------|



 Check Out Death Warp, With More Transcriptions On It:
 http://tiger.towson.edu/~dalvis1


Текст, аккорды и табулатура для песни "The Apostle In Triumph", исполняет "Opeth".
Используемые в песне аккорды можно найти в разделе Как брать аккорды. Аккорды для шестиструнной гитары. Другие песни можно найти на нашем сайте, воспользовавшись алфавитным указателем вверху страницы.


 
Ошибка в тексте? Выделите ошибку и нажмите Ctrl+Enter