(instrumental)
 1 guitar
E|-----3--------------3-----------------------------------------|
B|--4-----4--------4-----4-----------3--------------3-----------|
G|--|--------5-----------5-----|--------5-----------5-----3-----3--------3-----3--------|
D|--|-----5-----------------5--|-----5-----------------5--|--------5-----------5-----|--------5-----------5-----|
A|--|--3-----------------------|--3-----------------------|-----5-----------------5--|-----5-----------------5--|
E---------------------|--3-----------------------|--3-----------------------|
 2 guitar
E|-----3--------------3-----------------------------------------|
B|--4-----4--------4-----4-----------3--------------3-----------|
G|--|--------5-----------5-----|--------5-----------------3-----3--------3-----3--------|
D|--|-----5-----------------5--|-----5--------------------|--------5-----------5-----|--------5-----------5-----|
A|--|--3-----------------------|--3-----------------3--2--|-----5-----------------5--|-----5-----------------5--|
E---------------------|--3-----------------------|--3-----------------------|
 bass guitar
G---------------------------------------------------|
D||--1--0----------------------|--1-----------1--0--------------------------------------|
A||--------1----|--3-----------------3--5-----------3--1-----------1--------------------|
E---------------------|--3-----------------------|--3-----------------------|

                                                                                                     

---4--------------4----------------------------------|
5-----5--------5--5----------------------0-----------|
|--------6-----------6-----|--------6-----6-------------------0-----0--------|
|-----6-----------------6--|-----6--------6-------------------|--------2-----------------|
|--4-----------------------|--4-----------4----------------------------------|
--------------------------------3--2--|--0-----------------0--2--|

---4--------------4----------------------------------|
5-----5--------5--5----------------------0-----------|
|--------6-----------6-----|--------6-----6-------------------0-----0--------|
|-----6-----------------6--|-----6--------6-------------------|--------2-----------------|
|--4-----------------------|--4-----------4----------------------------------|
--------------------------------3--2--|--0-----------------0--2--|

-----------------------------------------------------|
---1-----------|--2-----------6-------------5--4--|--2-----------------2--4--|
|--4-------------------------------------------------------------|
-----------------------------------------------------|
                                                                                                           


-----------------------------------------------------------|
---0--------------------------5--3-5-3-1-------------------|
0-----0-----0--|--------0--------0-------|-------2---------------------0-----------|
|--------0-----------0--------0----------|----2---------------------|--------2--------2-----2--|
---------------|--3--------2--------0-------------------2--------2-----|
|--3----------------------------------------------------|--0-----------------------|

-----------------------------------------------------------|
-----------------------------------------------------------|
--0------------|--------0--------0-------|-------2----5--4-5-4-2-------------------|
|--------0-----------0--0-----0----------|----2------------------------------------|
---------------|--3--------2--------0----------------------------2--7--|
|--3----------------------------------------------------|--0-----------------------|

-----------------------------------------------------------|
|--5-----------------------|--2--------0-------------------------------------------|
------------------------0----|--0--------------------------------------|
--------------------------------------------|--0-----------------------|


                                                                                                            
-------------------------------------------------|
|--------1--------0-----0--------------------------------||---------0-------0-----0--|
|-----0--------0-----0-----0--------------2-----------1--||*--0----------0-----0-----|
---------------|--------0-----0-----------|--------4-----------3-----||*-------------------------|
|--3--------2--------------------2-----0--|-----0-----------0------------|
---------------|--3-----------------3-----|--2-----------1---------------|

-------------------------------------------------|
-------------------------------------------------|
---------------------------------------------||*-------------------------|
---------------------------------------------||*-------------------------|
|--7--------5--------3--2-----------------3--------------||---------2----------3--2--|
---------------|--3-----------------3--5--|--2-----2-----1-----------||------3-------------------|

-------------------------------------------------|
|--2-----------------------------------------------------||*--------9----------------|
5--------3--2-----------0--2--0--------------||*-----9-------------------|
---------------|--3-----------------------|--2-----3-----1-----------||---7----------------------|

                                                                                                                     
-------------------------------------||--0----2-----0----0--2--|--3--------3----3--5--|
|--------1-------1-----1-------------------------||--0--------------------------------|
|--2--0-------0-----0---------------------------*||--0--------------------------------|
--------------|-5---------4--------------2--1---*||--2--------------------------------|
-------------------------------------||--2--------------------------------|
-------------------------------------||--0--------------------------------|

--------------------------------------------------|
---------------------------------------|--5-------------5--7--|
------------------------------------*|----------4-------------|
--------------|-5---------4--------------2--1---*||----------2--5----7----------------|
|--0----------------0--2--------------------------------------|
-------------------------------------||--0----0---------------------------|

--------------|-------16--17--16h17h16h-14--12----------------|
|--------10---------------|----14--------------------------|--13--------*-------------|
|-----10------------------|-14------------------------------*-------------|
|--8---------------------------------------------||--0---------------------|--0-------------0--2--|


                                                                                                   
|--7------7--7--5-----------------------0-----------|--------0-----0-----------|
-------5--8--|--7--------------------1-----1--------7-----7--------|
-------------|---------7--7----------|-----0--0-----------0-----|-----7--------------------|
----------------------------------------|--7-----------------7-----|
-------------------------|--3--------------------------------------|
-------------------------------------------------------|

-------------------------------------------------------|
|--8------8--8--7--5--8--|--7--------------------------------------------------|
-------------|---------4--4-------4--|--5-----------------5--4--|--2-----------------2--4--|
-------------------7-----------------------------------|
-------------------------------------------------------|
-------------------------------------------------------|

-------5-----------------------------------------------|
-------------|--0--------------0h-2--|--2-----------------2--4--|--4-----------------4--5--|
-------------------------------------------------------|
|--3---------------------------------------------------------------|


                                                                                                               
---7---------|----7-------7---------------0-------------------0------------|
8---------8--|-------8-------8--------|---------8--------8---------|----------10---------10--------|
|--------9----------------------------|------9-----9--------9------|------11------11---------11----|
|-----9-------------------------7--9--|--10--------------------10--|--12---------------------------|
|--7-----------------------------------------------------------------------|
---------------------------------------------------------------|

---------------------------------------------------------------|
---------------------------------------------------------------|
--------------------------------------------------7------------|
|--5----------------------------7--9--|--10----------10----10--10--|--7----------------------7-----|
---------------------------------------------------------------|
---------------------------------------------------------------|

---------------------------------------------------------------|
|--2------------------0--|--2---------------2--0---------------------------------0--2--|
--------------------------|--3------------------3---2--|--0----------------------------|
---------------------------------------------------------------|

---7-----------|--7-----------12--------||
8-----8--------|--8--8--10----12--------||
|--------9-----------9------------------||
|-----9-----------------9---------------||
|--7------------------------------------||
----------------------------||

---7------------------------||
8-----8---------------------||
|--------9-----------9-----|--9---------------------||
|-----9-----------------9---------------||
|--7------------------------------------||
----------------------------||

----------------------------||
------------0--|--2---------------------||
----------------------------||
|--0------------------------------------||


Текст, аккорды и табулатура для песни "Requiem", исполняет "Opeth".
Используемые в песне аккорды можно найти в разделе Как брать аккорды. Аккорды для шестиструнной гитары. Другие песни можно найти на нашем сайте, воспользовавшись алфавитным указателем вверху страницы.


 
Ошибка в тексте? Выделите ошибку и нажмите Ctrl+Enter