-=-=-=-=-=-=-=-=-=-=-=-=-=-=-=-=-=-=-=-=-=-=-=-=-=-=-=-=-=-=-=-=-=-=-=-
Author/Artist: Opeth
Title: Dirge For November
Album: Blackwater Park
Year: 2001
-=-=-=-=-=-=-=-=-=-=-=-=-=-=-=-=-=-=-=-=-=-=-=-=-=-=-=-=-=-=-=-=-=-=-=-

Legend:

~ [Vibrato]
/ [Slide Up]
 [Slide Down]
p [Pull Off]
(x) [Ghost Note]

These are all the acoustic parts in this great song...


  Lost... Here is, no-where... Searching home still...
e|--------(5)-(3)-----------------------------------------------------|
B|-0~--------------------------1-0------------------------------------|
G|-----------------7~----------2---------0-2--2~----------------------|
D|-2~--------------7~----------2---------2----3~----------------------|
A|-0~--------------0~----------0---------2----3~----------------------|
E|---------------------------------------0----1~----------------------|

  Turning past... me, all are gone... Time... Is...
e|----------------5~--3~------1p-0-1----------------------------------|
B|------------8~--3~--0~------3-------1~------0~----------------------|
G|----------7-----2~--0~------2-------2~------0~----------------------|
D|--------------------0~------0---------------2~----------------------|
A|-------/6-----------2~----------------------------------------------|
E|--------------------3~--------------0~------------------------------|

  Now...
e|----------------------------------5p-0-----------------0------------|
B|---------0-1p-0----------8~-----3------3-------------0---0----------|
G|-----2----------2--------5~---2----------2---------2-------2--------|
D|---2---2----------2---/7----0--------------0-----3------------------|
A|-0------------------0--------------------------3--------------------|
E|---------------------------------------------1----------------------|

After playing one time the arpeggio, Guitar 2 joins with the following
riff...

Guitar 2 (electric):
                                      Fill
e|-----------------------------------|-----|--------------------------|
B|-----------------10-12-13-12-------|-----|--------------------------|
G|-9-9-7----7-9--9-------------------|-5-7-|--------------------------|
D|-------10--------------------12-10-|-----|--------------------------|
A|-----------------------------------|-----|--------------------------|
E|-----------------------------------|-----|--------------------------|

Guitar 1 (acoustic), play the above arpeggio 4 times.


Variation of the melody... (Not 100% complete the Guitar 1 part)

Guitar 1:

e|-------------------------------------------5-7-8p-7-----------------|
B|-------0-----3p-2---------------------0-/5----------53-31-1-----|
G|---------3--------3-----------------2-------------------------------|
D|-----4-----4--------4---4---------3---------------------------------|
A|---4------------------4-----4---3-----------------------------------|
E|-2------------------------2---1-------------------------------------|

Guitar 2:

e|--------------------------------------------------------------------|
B|--------------------------------------------------------------------|
G|-7-9~-74~----------------------------------------------------------|
D|--------------------------------------------------------------------|
A|--------------------------------------------------------------------|
E|--------------------------------------------------------------------|

After the variation the main melody is played 4 times, the same way as it
was before.

This is the ending of the song...

First Part:

e|--------------------------0-----------------------------------------|
B|-1-1---1-1--------------0---0---------0-1---------------------------|
G|-2-2---2-2------------2-------2-0---------2-------------------------|
D|-----2-----2--------3-----------2-4-0-2---3-------------------------|
A|-0-0---0-0--------3-------------------------------------------------|
E|-------------0h-1---------------0-0-0-1---1-------------------------|

Play the 1st part 4 times and then...

Second Part:

e|----------------------1-1-------------------------------------------|
B|------------------------1---1-0~----------------------------------|
G|-1-1---0-0---0-0----------2-2---2~----------------------------------|
D|-3-3-3---3-3-5-5-5----3-3-2-2---3~----------------------------------|
A|-3-3-----3---5-5------------0---3~----------------------------------|
E|-------------------3~-----------------------------------------------|

The above arpeggio is played 2 times...

Repeat both parts, each played as many times as it is written below.


Текст, аккорды и табулатура для песни "Dirge For November", исполняет "Opeth".
Используемые в песне аккорды можно найти в разделе Как брать аккорды. Аккорды для шестиструнной гитары. Другие песни можно найти на нашем сайте, воспользовавшись алфавитным указателем вверху страницы.


 
Ошибка в тексте? Выделите ошибку и нажмите Ctrl+Enter