normal tuning
EADGBC

Intro
E[------------------------
B[------------------------
G[---7--9--7-----7--9--7--
D[7--7--9--7--7--7--9--7--
A[7--5--7--5--7--5--7--5--
E[5-----------5-----------

Chorus- this is all power chords
E[--------------------------------
B[--------------------------------
G[----77--99--77------77--99--77--
D[77--77--99--77--77--77--99--77--
A[77--55--77--55--77--55--77--55--
E[55--------------55--------------

Verse- this is played with a ska upstroke 
E[-5-5-5-5-5-5-5-5/7-7-7-7-7-5-5-5-5-5-5-5-5-5-5-5-5/7-7-7-7-7-5-5-5-5
B[-5-5-5-5-7-7-7-7/9-9-9-9-9-7-7-7-7-5-5-5-5-7-7-7-7/9-9-9-9-9-7-7-7-7
G[-6-6-6-6-7-7-7-7/9-9-9-9-9-7-7-7-7-6-6-6-6-7-7-7-7/9-9-9-9-9-7-7-7-7
D[-7-7-7-7---------------------------7-7-7-7--------------------------
A[--------------------------------------------------------------------
E[--------------------------------------------------------------------


Repeat Chorus

Repeat Verse

Repeat Chorus

Repeat Verse

Repeat Chorus

Bridge- Do this twice
E[--------------------------------------------
B[--------------------------------------------
G[------777--9-999-777--------777--9-999-777--
D[7-777-777--9-999-777--7-777-777--9-999-777--
A[7-777-555--7-777-555--7-777-555--7-777-555--
E[5-555-----------------5-555-----------------

Yet again, Repeat Chorus

And i think the rest is self-sufficient.
Just listen to the song to get the correct timing.  Enjoy!


Текст, аккорды и табулатура для песни "Unity", исполняет "Operation Ivy".
Используемые в песне аккорды можно найти в разделе Как брать аккорды. Аккорды для шестиструнной гитары. Другие песни можно найти на нашем сайте, воспользовавшись алфавитным указателем вверху страницы.


 
Ошибка в тексте? Выделите ошибку и нажмите Ctrl+Enter