Operation Ivy - the crowd
Tabbed By: Katie
EMail: [email protected]


    F#m        D          A          E

e:--2-------|--2-------|--0-------|--0-------||
B:--2-------|--3-------|--2-------|--0-------||
G:--2-------|--2-------|--2-------|--1-------||
D:--4-------|--0-------|--2-------|--2-------||
A:--4-------|--0-------|--0-------|--2-------||
E:--2-------|----------|--0-------|--0-------||

Open ringing chords during intro


Verse:

   F#5               E5      D5               E5      A5               B5

e:------------------------|------------------------|------------------------|
B:------------------------|------------------------|------------------------|
G:-11---11-11-11-11--9----|--7----7--7--7--7--9----|------------------------|
D:-11---11-11-11-11--9----|--7----7--7--7--7--9----|--7----7--7--7--7--9----|
A:--9----9--9--9--9--7----|--5----5--5--5--5--7----|--7----7--7--7--7--9----|
E:------------------------|------------------------|--5----5--5--5--5--7----|


                            
    E5                      

e:------------------------||
B:------------------------||
G:--9----9--9--9--9--9----||
D:--9----9--9--9--9--9----||
A:--7----7--7--7--7--7----||
E:------------------------||


Alternate between palm muting and ringing chords.Chorus:

    F#5        D5            A5         E5             F#m

e:------------------------|------------------------||--2---------||
B:------------------------|------------------------||--2---------||
G:-------------7----7--7--|------------------------||--2---------||
D:--4----4--4--7----7--7--|--7----7--7--2----2--2--||--4---------||
A:--4----4--4--5----5--5--|--7----7--7--2----2--2--||--4---------||
E:--2----2--2-------------|--5----5--5--0----0--0--||--2---------||


                                                             
Solo:

e:----|--------------------------|--------------------------|
B:----|--------------------------|--------------------------|
G:----|--------------------------|--------------------------|
D:----|--------------------------|--------------------------|
A:--2/|--9-----9--9--9--9--7--7--|--5--5--5--5--5--7--7--7--|
E:----|--------------------------|--------------------------|

                                                     

e:-------------------------|-------------------------|
B:-------------------------|-------------------------|
G:-------------------------|-------------------------|
D:-------------------------|-------------------------|
A:--0--0--0--0--0--0--2----|--7--7--7--5--5--5--7----|
E:-------------------------|-------------------------|e:-------------------------|--------------------------|
B:-------------------------|--------------------------|
G:-------------------------|--------------------------|
D:-------------------------|--------------------------|
A:--9----9--9--9--9--7--7--|--5--5--5--5--5--7--7--7--|
E:-------------------------|--------------------------|e:-------------------------|-------------------------||
B:-------------------------|-------------------------||
G:-------------------------|-------------------------||
D:-------------------------|-------------------------||
A:--0--0--0--0--0--0--2----|--7--7--7--7--7--7--7----||
E:-------------------------|-------------------------||


Текст, аккорды и табулатура для песни "Crowd", исполняет "Operation Ivy".
Используемые в песне аккорды можно найти в разделе Как брать аккорды. Аккорды для шестиструнной гитары. Другие песни можно найти на нашем сайте, воспользовавшись алфавитным указателем вверху страницы.


 
Ошибка в тексте? Выделите ошибку и нажмите Ctrl+Enter