Underground OneSideZero 
Tabbed By- Jtthibert 
(drop D Tuning) 

This is all I know but i saw them do this live in San Antonio 
and it was really awesome. Some parts might be wrong because 
they had three guitars going and I tried to remeber most of them... 
The really stand out parts are what are in this tab. 
Email me at [email protected] if you figure out any OneSideZero Tabs.       
                             
E--------------------------------------------------------- 
B--------------------------------------------------------- 
G--------------------------------------------------------- 
D--------10---------10-----------10----7--6--------------- 
A-----7----------7------------7--------7--7--------------- 
D--7----------7------------7------------------------------ 


E--------------------------------------------------------- 
B--------------------------------------------------------- 
G--------------------------------------------------------- 
D---------6---------6--------0---------------------------- 
A------3---------3--------0------------------------------- 
D---3---------3--------0----------5--5--6----------------- 

(clean) 
E--------------------------------------------------------- 
B--------------------------------------------------------- 
G--------------------------------------------------------- 
D--3--3--3--3--3--3---2--2--2--2--2--2-------------------- 
A--5--5--5--5--5--5---5--5--5--5--5--0-------------------- 
D--------------------------------------------------------- 


Chorus 
E---------------------------------------------------------- 
B---------------------------------------------------------- 
G---------------------------------------------------------- 
D---7-7-7-7-7-7---0-0-0-0-0-0---8-8-8-8-8-8---5-5-5-5-5-5-- 
A---7-7-7-7-7-7---0-0-0-0-0-0---8-8-8-8-8-8---5-5-5-5-5-5-- 
D---7-7-7-7-7-7---0-0-0-0-0-0---8-8-8-8-8-8---5-5-5-5-5-5-- 


Outro Solo 
E-------------------------------------------------------------------- 
B-------------------------------------------------------------5------ 
G--9~~-9-10s12--14--12s7--5-----9~~-9-10s12--14--12s7--5----7---7---- 
D----------------------------7----------------------------7-------7-- 
A-------------------------------------------------------------------- 
D-------------------------------------------------------------------- 

Outro 
E--------------------------------------------------------- 
B--------------------------------------------------------- 
G---------------------------------------9---7---5--------- 
D--------10---------10-----------10----------------------- 
A-----7----------7------------7--------------------------- 
D--7----------7------------7------------------------------ 

E--------------------------------------------------------- 
B--------------------------------------------------------- 
G--------------------------------------------------------- 
D---------6---------6--------6---------------------------- 
A------3---------3--------3------------------------------- 
D---3---------3--------3----------------------------------


Текст, аккорды и табулатура для песни "Underground", исполняет "Onesidezero".
Используемые в песне аккорды можно найти в разделе Как брать аккорды. Аккорды для шестиструнной гитары. Другие песни можно найти на нашем сайте, воспользовавшись алфавитным указателем вверху страницы.


 
Ошибка в тексте? Выделите ошибку и нажмите Ctrl+Enter