Artist- Onesidezero
Song- A Point in Time
Tabber-- Iconoclast

Intro
e|---------------------------------------------------|
b|--------5-5s7--------------7-----7-----5-----5-----|
g|-s6-6-7-------------7p6------6-----6-----7-----7---|
d|--------------7---7-----7------7-----7-----7-----7-|
a|----------------9----------------------------------|
D|---------------------------------------------------|

Verse
e|-------------------------------------|
b|--------5-5s7------------------------|
g|-s6-6-7-------------7p6--6-7-7s9-7---|
d|--------------7---7----------------7-|
a|----------------9--------------------|
D|-------------------------------------|

Chorus
e|---------------------------------------------------|
b|-----------------------------------------15--------|
g|-----------------------------------------x---------|
d|-7-7-6-6-7-7-9-9-7-7-9-9-11-11-9-9-11-11-12--------|
a|-4-4-4-4-4-4-6-6-6-6-6-6-7--7--7-7-7--7--0-(6x)----|
D|-4-4-4-4-4-4-6-6-6-6-6-6-7--7--7-7-7--7--0---------|

Bridge- 1st guitar
e|-------------------------------------------------|
b|-------------------------------------------------|
g|-------------------------------------------------|
d|-11s12s11-9s11s9-7s9s7-6s7s6-4s6s4-2-2-4-4-6h7---|
a|-------------------------------------------------|
D|-------------------------------------------------|

2nd guitar
e|----------------------------------------------|
b|----------------------------------------------|
g|-14-------14-------14-------------------------|
d|----11-12----12-11----12-11-14-12-11----------|
a|----------------------------------------------|
D|----------------------------------------------|

A little later...
e|-----------------------------------------------------|
b|-----------------------------------------------------|
g|-----------------------------------------------------|
d|-11----------12----------14----------12-11-11-12-----|
a|----12-12-12----14-14-14----11-11-11-----------------|
D|-----------------------------------------------------|

A little later
e|---------------------------------------------------------|
b|---------------------------------------------------------|
g|---------------------------------------------------------|
d|-12-11-11----14-14-14----16-------16-16s20-20-19h20p19---|
a|----------12----------12----14-14------------------------|
D|---------------------------------------------------------|

e|-----------------------------------------------------|
b|-----------------------------------------------------|
g|-----------------------------------------------------|
d|-11----------12----------14----------14-14b(16)------|
a|----12-12-12----14-14-14----11-11-11-----------------|
D|-----------------------------------------------------|

Coming soon- Onesidezero- Shed the skin


Текст, аккорды и табулатура для песни "A Point In Time", исполняет "Onesidezero".
Используемые в песне аккорды можно найти в разделе Как брать аккорды. Аккорды для шестиструнной гитары. Другие песни можно найти на нашем сайте, воспользовавшись алфавитным указателем вверху страницы.


 
Ошибка в тексте? Выделите ошибку и нажмите Ctrl+Enter