Bass tabs for 
 
	Rise n Shine - One Minuite Silence. (updated version)

        Tabbed by Rossko :)

	email. [email protected]

Drop to D tuning
                                            x2              
G------------------------------------------ 
D-----510----------------510------1012--
A--5--------10--3------5--------10---------
D------------------------------------------ 



                                 x8
G-------------------------------
D-------------------------------
A--4H5--4H5--4H5--4H5--4H5-4H5--
D-------------------------------


                                x8
G------------------------------
D------------------------------
A-------3H5--------3H5----3H4--
D-00-0-------0--0------00------



G------------------------------------------ 
D-----510----------------510------1012--
A--5--------10--3------5--------10---------
D------------------------------------------



G----------------------------------------------------------------
D-----510----------------510H12-10H12-10H12-10H12-10H12-10H12--
A--5--------10--3------5-----------------------------------------
D----------------------------------------------------------------


                                 x8
G-------------------------------
D-------------------------------
A--------3H5--------3H5----3H4--
D--00-0-------0--0------00------


                                              
G-------------------------------------
D-----510-----------510------1012--
A--5-------10/713--------10----------
D-------------------------------------



G------------------------------------
D-----510-----------510--15--12/--
A--5-------10/713-------------------
D------------------------------------


                                               
G-------------------------------------
D-----510-----------510------1012--
A--5-------10/713---------10---------
D-------------------------------------



G------------------------------------
D-----510-----------510--15--12/--
A--5-------10/713-------------------
D------------------------------------



G-----------------------------------
D-----510-----------510------10/--
A--5-------10/713---------10-------
D--0--------------------------------


G-------------------------------------------
D-----510-----------510-------------------
A--5-------10/713---------5-5-5-5-5-5-5-5--
D--0----------------------------------------


                                x16
G-------------------------------
D-------------------------------
A--------3H5--------3H5----3H4--
D--00-0-------0--0------00------



G------------------------------------------ 
D-----510----------------510------1012--
A--5--------10--3------5--------10---------
D------------------------------------------



G------------------------------------------------- 
D-----510----------------510--15--10--12 ~~~~~--
A--5--------10--3------5--------------------------
D-------------------------------------------------


Текст, аккорды и табулатура для песни "Rise N Shine", исполняет "One Minute Silence".
Используемые в песне аккорды можно найти в разделе Как брать аккорды. Аккорды для шестиструнной гитары. Другие песни можно найти на нашем сайте, воспользовавшись алфавитным указателем вверху страницы.


 
Ошибка в тексте? Выделите ошибку и нажмите Ctrl+Enter