One Minute Silence - Holy Man - Buy Now...Saved Later

Tabbed by trent

Standard Tuning
The timings are rough guides.
Riff II isn?t exact so if your good then you can change it!
I have added times so you don?t get lost to were things fit in.

Intro  (0:15) Clean Tone
E-----------------------------------------|
B-----------------------------------------|
G-----------------------------------------|  X4
D---5---5-----5b-5b-----------------------|
A-----------------------------------------|
D-----5---5-5-------5---------------------|

Riff I:(0:37)

Guitar I:  Distortion
E---------------------------------------------|
B---------------------------------------------|
G---------------------------------------------|  X8
D-3-5-5-5-5-3-5-5-5-5-5-5-5-------------------|
A-3-5-5-5-5-3-5-5-5-5-5-5-5-------------------|
D-3-5-5-5-5-3-5-5-5-5-5-5-5-------------------|
  


Текст, аккорды и табулатура для песни "Holy Man", исполняет "One Minute Silence".
Используемые в песне аккорды можно найти в разделе Как брать аккорды. Аккорды для шестиструнной гитары. Другие песни можно найти на нашем сайте, воспользовавшись алфавитным указателем вверху страницы.


 
Ошибка в тексте? Выделите ошибку и нажмите Ctrl+Enter