Artist: One Dollar Short
Song: Unsung Hero
Album: Eight Days Away
Tabbed By: Tim Bryant
E-mail:  [email protected]

Tuning:EADGbe

Intro - Guitar 1 (clean)
e|--------------------------------------|
B|--------------------------------------|
G|----9--------9--------6---------------|
D|----7--------7--------7---------------| x2
A|----9--------5--------7--------7------|
E|----------------------5--------4------|
Listen to CD for timing and Rythm

Intro 2 - Guitar 1 (Distortion)
e|---------------------------0----------------|
B|----------------------------0---------------|
G|-------------7------------------------------|
D|----4--------7--------7-7-------------------| x2
A|----4--------5--------7-7------------7------|
E|----2-----------------5-5------------4------|                
On second time dont play the open notes (b & e)

Guitar 2 (0:23)
e|------------------------------------------------------------------|
B|------------------------------------------------------------------|
G|---11---------14----13----14--------19----18--------16----18------|
D|------------------------------------------------------------------|
A|----9-/-------12----11----12--------17----16--------14-/--16------|
E|------------------------------------------------------------------|
Play on the second time of intro 2

Guitar 1 - Verse - You were the one that taught me.....
e|--------------------------------------------------------|
B|--------------------------------------------------------|
G|---------------------------7-777777--6/7-6--------------|
D|----4-444444-4-2-222222-2--7-777777-------7-------------| x2
A|----4-444444-4-2-222222-2--5-555555---------4/5-4-------|
E|----2-222222-2-0-000000-0------------------------5------|
pm      ......     ......      ......

Guitar 1 - You were always there..... 
e|-------------------------------------------|
B|-------------------------------------------|
G|----------------------7-7-7-7-7-7-7-7------|
D|----4-4-4-4--2-2-2-2--7-7-7-7-7-7-7-7------| 
A|----4-4-4-4--2-2-2-2--5-5-5-5-5-5-5-5------|
E|----2-2-2-2--0-0-0-0-----------------------|
Listen to CD for rythm and timing of this part

Guitar 1
e|----------------------------------------------------------|
B|----------------------------------------------------------|
G|----------------------7-7-7-7--------999999----13---------|
D|----4-4-4-4--2-2-2-2--7-7-7-7--------999999---------------|
A|----4-4-4-4--2-2-2-2--5-5-5-5--------777777----11-/


Текст, аккорды и табулатура для песни "Unsung Hero", исполняет "One Dollar Short".
Используемые в песне аккорды можно найти в разделе Как брать аккорды. Аккорды для шестиструнной гитары. Другие песни можно найти на нашем сайте, воспользовавшись алфавитным указателем вверху страницы.


Слушать онлайн Unsung Hero


One Dollar ShortUnsung Hero на Яндекс.Музыке


 
Ошибка в тексте? Выделите ошибку и нажмите Ctrl+Enter