Artist: Old Man's Child
Title: Obscure divine manifestation
Album: Revelation 666

Tabbed by elc ([email protected];[email protected])

Riff 1, guitar 1&2 can be played together by one guitar, but it's easier to
tab it the separately,
Guitar 1
e|-----------------------------------------------------------------|
B|-----------------------------------------------------------------|
G|-----------------------------------------------------------------|
D|-4-----4-3-------4-----4-3-----3-4-----4-3-------4-----4-3-----3-|
A|-2-----2-1-------2-----2-1-----1-2-----2-1-------2-----2-1-----1-|
E|-2-----2-1-------2-----2-1-----1-2-----2-1-------2-----2-1-----1-|
pm .     . .       .     . .     . .     . .       .     . .     .
Guitar 2
e|-----------------------------------------------------------------|
B|-----------------------------------------------------------------|
G|-----------------------------------------------------------------|
D|-----------------------------------------------------------------|
A|-----------------------------------------------------------------|
E|-2222222211111111222222221111111122222222111111112222222211111111|
pm ................................................................

Riff 2, play it at after the riff 1 one time,
Guitar 1
e|----------------------------------|
B|----------------------------------|
G|----------------------------------|
D|----------------------------------|
A|-4-4-4-4---4---4----------------/-|
E|-2-2-2-2---2---2----------------/-|
Guitar 2
e|---------------2------------------|
B|-----------2----------------------|
G|-------2--------------------------|
D|-----4----------------------------|
A|---4----------------------------/-|
E|-2------------------------------/-|

Riff 3
e|-----------------------------------------------------------------|
B|-----------------------------------------------------------------|
G|-----------------------------------------------------------------|
D|-4-4-4-5-8/7---4---4-4-5-8/7-45-4-4-4-5-8/7---4---4-4-5-8/7-45-|
A|-2-2-2-3-6/5---2---2-2-3-6/5-23-2-2-2-3-6/5---2---2-2-3-6/5-23-|
E|-2-2-2-3-6/5---2---2-2-3-6/5-23-2-2-2-3-6/5---2---2-2-3-6/5-23-|
pm . . . .           . . .         . . . .           . . .

Riff 4
Guitar 1
e|-----------------------------------------------------------------|
B|-----------------------------------------------------------------|
G|-----------------------------------------------------------------|
D|---8/9-8-8/9-8-8-5---5-5-8-8-8-9---8/9-8-8/9-8-8-5---5-5-8-8-8-9-|
A|---6/7-6-6/7-6-6-3---3-3-6-6-6-7---6/7-6-6/7-6-6-3---3-3-6-6-6-7-|
E|---6/7-6-6/7-6-6-3---3-3-6-6-6-7---6/7-6-6/7-6-6-3---3-3-6-6-6-7-|
pm       .     . .     . .               .     . .
Guitar 2
e|-----------------------------------------------------------------|
B|-----------------------------------------------------------------|
G|-----------------5-------8-----9-----------------5-------8-----9-|
D|---8/9-8-8/9-8-8---5---5---8---9---8/9-8-8/9-8-8---5---5---8---9-|
A|---6/7-6-6/7-6-6-----3-------6-7---8/9-8-8/9-6-6-----3-------6-7-|
E|---6/7-6-6/7-6-6-------------------6/7-6-6/7-6-6-----------------|
pm       .     . .                       .     . .

Riff 5, bridge-like riff beetwen riff4 and 5

e|-----------------|
B|-----------------|
G|-----------------|
D|---8/9-8-8/9---9-|
A|---6/7-6-6/7---7-|
E|---6/7-6-6/7---7-|
pm       .

Riff 6
e|-----------------------------------------------------------------|
B|-----------------------------------------------------------------|
G|-----------------------------------------------------------------|
D|---8/9-8-8/9-8-5---5555555-5554---8/9-8-8/9-8-8---8888888-8887-|
A|---6/7-6-6/7-6-3---3333333-3332---6/7-6-6/7-6-6---6666666-6665-|
E|---6/7-6-6/7-6-3---3333333-3332---6/7-6-6/7-6-6---6666666-6665-|
pm       .     .     ......  ..          .     .     ......  ..

e|-----------------------------------------------------------------|
B|-----------------------------------------------------------------|
G|-----------------------------------------------------------------|
D|---8/9-8-8/9-8-5---5555555-5554---8/9-8-8/9-8-8---8888888-887/8-|
A|---6/7-6-6/7-6-3---3333333-3332---6/7-6-6/7-6-6---6666666-665/6-|
E|---6/7-6-6/7-6-3---3333333-3332---6/7-6-6/7-6-6---6666666-665/6-|
pm       .     .     ......  ..          .     .     ......  ..

Riff 4

Riff 5

Riff 7
Guitar 1
e|-----------------------------------------------------------------|
B|-----------------------------------------------------------------|
G|-----------------------------------------------------------------|
D|-9-----8---------12----11--7-8---9-----8---------12----11--7-8---|
A|-7-----6---------10----9---5-6---7-----6---------10----9---5-6---|
E|-7-----6---------10----9---5-6---7-----6---------10----9---5-6---|
pm                           .                               .

Riff 8
Guitar 1,
e|-----------------------------------------------------------------|
B|-----------------------------------------------------------------|
G|-----------------------------------------------------------------|
D|-9-8-7---109---1211109---8-7---8-9-8-7---109---1211109---8-7---8-|
A|-7-6-5---8-7---109-8-7---6-5---6-7-6-5---8-7---109-8-7---6-5---6-|
E|-7-6-5---8-7---109-8-7---6-5---6-7-6-5---8-7---109-8-7---6-5---6-|

Riff 1

Riff 9, play it at after the riff 1 one time,
Guitar 1
e|----------------------------------|
B|----------------------------------|
G|----------------------------------|
D|----------------------------------|
A|-4-4-4-4---4---4----------------/-|
E|-2-2-2-2---2---2----------------/-|
Guitar 2
e|---2------------------------------|
B|-2---2----------------------------|
G|-------2---1----------------------|
D|---------------4------------------|
A|--------------------------------/-|
E|--------------------------------/-|

Riff 3

Riff 6

Riff 8

Ending
e|-------|
B|-------|
G|-------|
D|-9-8-7-|
A|-7-6-5-|
E|-7-6-5-|
pm . . .


Текст, аккорды и табулатура для песни "Obscure Divine Manifestation", исполняет "Old Mans Child".
Используемые в песне аккорды можно найти в разделе Как брать аккорды. Аккорды для шестиструнной гитары. Другие песни можно найти на нашем сайте, воспользовавшись алфавитным указателем вверху страницы.


 
Ошибка в тексте? Выделите ошибку и нажмите Ctrl+Enter