Вступ. Cm Fm – 2 раза. 
Cm                   Fm
Ти моя остання любов, моя машина, моя машина.
Cm                    Fm                               Ex.1
Ти и я напилися знов, моя єдина, на смак бензину й кави...
 Ex.2 Cm               Ex.3  Fm
День і ніч дихає час, а ми с тобою живемо двоє,
  Ex.2 Cm               Ex.3    Fm
Автомобіль буде у нас моє ти сонце!

Припев:  
Cm          Gm G Cm                        Gm GCm
Я не один, і ти не одна, скільки людей, стільки машин.
Cm            Gm   G Cm             Gm G Cm
Ти не одна, я не один , мій телефон девять один оди-и-ин!

2 куплет.
Ти і я щаслива симЪя , бо ти машина, моя машина,
Може твій, а може твоя, моя  єдина, налий бензину й кави...
І хто не забув сьогодні до нас, заходьте в гості, заходьте в гості,
Ставити фільм, може і нас , колись покажуть там...
Припев. 


Ex.1
1-----------3---------1----1---1---1--------
2---------4----------1----1---1---1----------
3-------5-----------1---1----1---1-----------
4----------------------------------------------
5----3-----------------------------------------
6---------------1------------------------------
Ex.2                     Ex.3
1-------------            -----------------------
2--------3-----         ------1-----------------
3------4-------         ----1-------------------
4-----4--------         --1---------------------
5---3----------        ----------------------
6------------            -1-----------------------


	
	
	        
Комментарий автора: Так играл Павел Гудмов На Концерте. Спасибо большое.

Текст, аккорды и табулатура для песни "911", исполняет "Океан Эльзы".
Используемые в песне аккорды можно найти в разделе Как брать аккорды. Аккорды для шестиструнной гитары. Другие песни можно найти на нашем сайте, воспользовавшись алфавитным указателем вверху страницы.


Слушать онлайн 911


Океан Ельзи911 на Яндекс.Музыке


 
Ошибка в тексте? Выделите ошибку и нажмите Ctrl+Enter