PM-palm muted
M-mute string
/-slide up
-slide down

INTRO:
------
First guitar plays this.
E-------------------------------------------------------------------------|
B-------------------------------------------------------------------------|
G-------------------------------------------------------------------------|
D|-3-3--3-3-3-2-0------------------------------------------0-2-3-3--3-5-3-2-0---------|
A-----3-3--3-3-3-2-0------------0-2-3-3--3-3-3--------------------3-3--3-3|
E--------------------3-3--3-3-3-------------------------------------------|

E----------------------|
B----------------------|
G-----------5m--5m--5m-|
D-----------5m--5m--5m-|
A|-3-2-0------------0-2-3m--3m--3m-|
E|-------3-3--3-3-3----------------|

Second guitar plays this.
E-------------------------------------------------------------------------|
B-------------------------------------------------------------------------|
G|-10-10--10-10-10-10-10-5-5--5-5-5-5-5----------------5-5--5-5-5-5-5-10-10--10-10-10-|
D|-10-10--10-10-10-10-10-5-5--5-5-5-5-5-5-5--5-5-5-5-5-5-5--5-5-5-5-5-10-10--10-10-10-|
A|--8--8---8--8--8--8--8-3-3--3-3-3-3-3-5-5--5-5-5-5-5-3-3--3-3-3-3-3--8--8---8--8--8-|
E---------------------------3-3--3-3-3-3-3--------------------------------|

E---------------------------------------------------|
B---------------------------------------------------|
G|10-10-5-5--5-5-5-5-5----------------5-5--5-5-5-5-5-5m--5m--5m-|
D|10-10-5-5--5-5-5-5-5-5-5--5-5-5-5-5-5-5--5-5-5-5-5-5m--5m--5m-|
A|-8--8-3-3--3-3-3-3-3-5-5--5-5-5-5-5-3-3--3-3-3-3-3-3m--3m--3m-|
E----------3-3--3-3-3-3-3---------------------------|


PART 1:
-------
(Goodbye my friend...)
E-------------------------------------------------------------------------|
B-------------------------------------------------------------------------|
G-------5-5--5-5-5-5-5-5------------------5-5--5-5-5-5-5-5----------------|
D|-3-3--3-3-3-3-3-3-5-5--5-5-5-5-5-5-5-5--5-5-5-5-5-5-5-5--5-5-5-5-5-5-3-3--3-3-3-3-3-|
A|-3-3--3-3-3-3-3-3-3-3--3-3-3-3-3-3-5-5--5-5-5-5-5-5-3-3--3-3-3-3-3-3-3-3--3-3-3-3-3-|
E|-1-1--1-1-1-1-1-1------------------3-3--3-3-3-3-3-3------------------1-1--1-1-1-1-1-|
   __________________________________palm muted_____________________________________/

E-----------------------------------------------------|
B-----------------------------------------------------|
G|--5-5--5-5-5-5-5-5------------------5-5--5-5-5-5-5-5-5m--5m--5m-|
D|3-5-5--5-5-5-5-5-5-5-5--5-5-5-5-5-5-5-5--5-5-5-5-5-5-5m--5m--5m-|
A|3-3-3--3-3-3-3-3-3-5-5--5-5-5-5-5-5-3-3--3-3-3-3-3-3-3m--3m--3m-|
E|1------------------3-3--3-3-3-3-3-3-----------------------------|
  _____________________palm muted___________________/

CHORUS:
-------
(Hey in Walla I´ll see you in Walla Walla...)
E-----------------------------------------------------------------------|
B-----------------------------------------------------------------------|
G|--5/7-7--7-7-7-7-7-7-7--7-7-7-7-7/9-9/10-10--10-10-10-10-10-10-10--10-10-10-10-10-|
D|--5/7-7--7-7-7-7-7-7-7--7-7-7-7-7/9-9/10-10--10-10-10-10-10-10-10--10-10-10-10-10-|
A|--3/5-5--5-5-5-5-5-5-5--5-5-5-5-5/7-7/-8--8---8--8--8--8--8--8--8---8--8--8--8--8-|
E-----------------------------------------------------------------------|

E-----------------------------------------------------------------------------|
B-----------------------------------------------------------------------------|
G|-5-5--5-5-5-5-5-5-5--5-5-5-5-5----------------------------------------------------------|
D|-5-5--5-5-5-5-5-5-5--5-5-5-5-5-5-5--5-5-5-5-5-5-5--5-5-5-5-5--5m--5m--5m--5m--5m--5m--5m|
A|-3-3--3-3-3-3-3-3-3--3-3-3-3-3-5-5--5-5-5-5-5-5-5--5-5-5-5-5--5m--5m--5m--5m--5m--5m--5m|
E--------------------3-3--3-3-3-3-3-3-3--3-3-3-3-3--3m--3m--3m--3m--3m--3m--3m|

E-------------------------------------------------------------------------|
B-------------------------------------------------------------------------|
G|--9m--10m--10m--10m--10m--10m--10m--10m--10m--5--5-5-5-5-5-5-5--5-5-5-5-5-----------|
D|--9m--10m--10m--10m--10m--10m--10m--10m--10m--5--5-5-5-5-5-5-5--5-5-5-5-5-5-5--5-5-5|
A|--7m---8m---8m---8m---8m---8m---8m---8m---8m--3--3-3-3-3-3-3-3--3-3-3-3-3-5-5--5-5-5|
E---------------------------------------------------------------3-3--3-3-3|

E---------|
B---------|
G---------|
D|-5-5-5-5--5-5-5-5-5-|
A|-5-5-5-5--5-5-5-5-5-|
E|-3-3-3-3--3-3-3-3-3-|

UNKNOWN PART:
-------------
Improvise something like this:
(Ho ho not this time my friend...)
E|-3---3---3-3m--3---3---3-3m--3---3---3-3m--3---3---3-3m--3---3---3-3m--3---3---3-3m--3---3---3-3m-|
B|-3---3---3-3m--3---3---3-3m--3---3---3-3m--3---3---3-3m--3---3---3-3m--3---3---3-3m--3---3---3-3m-|
G|-0---0---0-0m--0---0---0-0m--0---0---0-0m--0---0---0-0m--0---0---0-0m--0---0---0-0m--0---0---0-0m-|
D|-0---0---0-0m--2---2---2-2m--0---0---0-0m--2---2---2-2m--0---0---0-0m--2---2---2-2m--0---0---0-0m-|
A|-2---2---2-2m--3---3---3-3m--2---2---2-2m--3---3---3-3m--2---2---2-2m--3---3---3-3m--2---2---2-2m-|
E|-3---3---3-3m----------------3---3---3-3m----------------3---3---3-3m----------------3---3---3-3m-|
  PM/          PM/          PM/          PM/          PM/          PM/          PM/

PART 2:
-------
E-----------------|
B-----------------|
G|-5m--5m--5m--5m--5m--5m--5m-|
D|-5m--5m--5m--5m--5m--5m--5m-|
A|-3m--3m--3m--3m--3m--3m--3m-|
E-----------------|


Play 1X intro
2X part 1 (Goodbye my friend you´ve messed up again...)
1X chorus (Hey in Walla I´ll see you in Walla Walla...)
1X intro  (Well I´ll see ya)
2X part 1 (That car looked so tempting...)
1X chorus (Hey in Walla I´ll see you in Walla Walla...)
1X intro  (Well I´ll see ya)
2x part 1 with different strumming
1x unknown part (Ho ho not this time my friend...)
1x part 2 (Now four walls are yours...)
1x chorus (Hey in Walla I´ll see you in Walla Walla...)
1x intro  (Well I´ll see ya)

Then finish on this:
E|-----|
B|-----|
G|-5-|
D|-5-|
A|-3-|
E|-----|


Goodbye my friend, you´ve messed up again
You´re going to prison, you´re off to the pen
You´ve gotten off easy so many times
But I guess no one told you how to get a life

The judge wasn´t lenient like he was before
You got three to five and a kick out the door
The public defender really did try
Too little, too late, you didn´t get a life

Hey, in Walla
I´ll see you in Walla Walla
Slap on the wrist? Well, not this time
Hey, in Walla
I´ll see you in Walla Walla
Folsom prison is the destination
Hey, in Walla
I´ll see you in Walla Walla
Slap on the wrist? Well, not this time
In the scheme of life, we´re all just brothers
Rehabilitate with all the others
Well, I´ll see ya

That car looked so tempting, so easy to drive
Just like that apartment that you burglarized
You started to run, but didn´t get far
Cause under your arm was a VCR

Ho ho, not this time my friend
You´ll be in lockdown by ten
I´m afraid you can´t talk your way out of this one, son
Now four walls are your 24-hour-a-day, constant companions. 

Hey, in Walla
I´ll see you in Walla Walla
Slap on the wrist? Well, not this time
Hey, in Walla
I´ll see you in Walla Walla
Folsom prison is the destination
Hey, in Walla
I´ll see you in Walla Walla
Slap on the wrist? Well, not this time
In the scheme of life, we´re all just brothers
Rehabilitate with all the others
Well, I´ll see ya

Have a nice life


Текст, аккорды и табулатура для песни "Walla Walla", исполняет "Offspring".
Используемые в песне аккорды можно найти в разделе Как брать аккорды. Аккорды для шестиструнной гитары. Другие песни можно найти на нашем сайте, воспользовавшись алфавитным указателем вверху страницы.


 
Ошибка в тексте? Выделите ошибку и нажмите Ctrl+Enter