Song: The End of the Line
Artist: The Offspring 
Album: Americana
As tabbed by Joe Muggah

Intro
e----------------------------------------------------------
B----------------------------------------------------------
G----------------------------------------------------------
D--4m--4m-4m-4m--4---4m--4m-4m-4m--4---4m--4m-4m-4m--4-----
A--4m--4m-4m-4m--4---4m--4m-4m-4m--4---4m--4m-4m-4m--4-----
E--2m--2m-2m-2m--2---2m--2m-2m-2m--2---2m--2m-2m-2m--2-----

(continued)
e----------------------------------------------------------
B----------------------------------------------------------
G--7-9-9-9-9-9-9--7-7-7-7-7-7-7-7-7-7-7-7-----------------
D--7-9-9-9-9-9-9--7-7-7-7-7-7-7-7-7-7-7-7-----------------
A--5-7-7-7-7-7-7--5-5-5-5-5-5-5-5-5-5-5-5-----------------
E----------------------------------------------------------

Verse
e----------------------------------------------------------
B----------------------------------------------------------
G-------------------7m-7m-7m--------------4m--4m-4m-4m--4--
D--4m--4m-4m-4m--4--7m-7m-7m--7m--9m--7m--4m--4m-4m-4m--4--
A--4m--4m-4m-4m--4--5m-5m-5m--7m--9m--7m--2m--2m-2m-2m--2--
E--2m--2m-2m-2m--2------------5m--7m--5m-------------------

(continued)
e----------------------------------------------------------
B----------------------------------------------------------
G--7m-7m-7m--9-9-9-9-------------------7m-7m-7m------------
D--7m-7m-7m--9-9-9-9--4m--4m-4m-4m--4--7m-7m-7m--7m-9m-7m--
A--5m-5m-5m--7-7-7-7--4m--4m-4m-4m--4--5m-5m-5m--7m-9m-7m--
E---------------------2m--2m-2m-2m--2------------5m-7m-5m--

(continued)
e----------------------------------------------------------
B----------------------------------------------------------
G--9-9-9-9-9-9--6-6-6-6-6-6--------------------------------
D--9-9-9-9-9-9--6-6-6-6-6-6--------------------------------
A--7-7-7-7-7-7--4-4-4-4-4-4--------------------------------
E----------------------------------------------------------

Chorus
e----------------------------------------------------------
B----------------------------------------------------------
G----------------------------9-9-9-9-9-9-------------------
D--4-4-4-4-4-4--7-7-7-7-7-7--9-9-9-9-9-9--9-9-9-9-9-9------
A--4-4-4-4-4-4--7-7-7-7-7-7--7-7-7-7-7-7--9-9-9-9-9-9------
E--2-2-2-2-2-2--5-5-5-5-5-5---------------7-7-7-7-7-7------

(continued)
e----------------------------------------------------------
B----------------------------------------------------------
G----------------------------9-9-9-9-9-9--6-6-6-6-6-6------
D--4-4-4-4-4-4--7-7-7-7-7-7--9-9-9-9-9-9--6-6-6-6-6-6------
A--4-4-4-4-4-4--7-7-7-7-7-7--7-7-7-7-7-7--4-4-4-4-4-4------
E--2-2-2-2-2-2--5-5-5-5-5-5--------------------------------

(continued)
e----------------------------------------------------------
B----------------------------------------------------------
G-11-11-11-11-11-11---------------9-9-9-9-9-9--------------
D-11-11-11-11-11-11--7-7-7-7-7-7--9-9-9-9-9-9--9-9-9-9-9-9-
A--9--9--9--9--9--9--7-7-7-7-7-7--7-7-7-7-7-7--9-9-9-9-9-9-
E--------------------5-5-5-5-5-5---------------7-7-7-7-7-7-

(continued)
e----------------------------------------------------------
B----------------------------------------------------------
G-11-11-11-11-11-11---------------9-9-9-9-9-9--6-6-6-6-6-6-
D-11-11-11-11-11-11--7-7-7-7-7-7--9-9-9-9-9-9--6-6-6-6-6-6-
A--9--9--9--9--9--9--7-7-7-7-7-7--7-7-7-7-7-7--4-4-4-4-4-4-
E--------------------5-5-5-5-5-5---------------------------

Fill
e----------------------------------------------------------
B----------------------------------------------------------
G--6-6-6-6-6-6-6-6-6-6-------------------------------------
D--6-6-6-6-6-6-6-6-6-6--4----------------------------------
A--4-4-4-4-4-4-4-4-4-4--4----------------------------------
E-----------------------2----------------------------------

Bridge 1
This is just random guitar noise with delay.

Bridge 2
e----------------------------------------------------------
B----------------------------------------------------------
G----------------------------------------9m-9m-9m--9-9-9-9-
D--4m-4m-4m--4-4-4-4--7m-7m-7m--7-7-7-7--9m-9m-9m--9-9-9-9-
A--4m-4m-4m--4-4-4-4--7m-7m-7m--7-7-7-7--7m-7m-7m--7-7-7-7-
E--2m-2m-2m--2-2-2-2--5m-5m-5m--5-5-5-5--------------------

(continued)
e----------------------------------------------------------
B----------------------------------------------------------
G----------------------------------------------------------
D--9m-9m-9m--9-9-9-9--4m-4m-4m--4-4-4-4--7m-7m-7m--7-7-7-7-
A--9m-9m-9m--9-9-9-9--4m-4m-4m--4-4-4-4--7m-7m-7m--7-7-7-7-
E--7m-7m-7m--7-7-7-7--2m-2m-2m--2-2-2-2--5m-5m-5m--5-5-5-5-

(continued)
e----------------------------------------------------------
B----------------------------------------------------------
G--9m-9m-9m--9-9-9-9--6m-6m-6m--6-6-6-6--------------------
D--9m-9m-9m--9-9-9-9--6m-6m-6m--6-6-6-6--------------------
A--7m-7m-7m--7-7-7-7--4m-4m-4m--4-4-4-4--------------------
E----------------------------------------------------------


Intro
Verse
Chorus
Verse
Chorus
Fill 
Bridge 1
Bridge 2
Chorus
Fill


Текст, аккорды и табулатура для песни "The End Of The Line", исполняет "Offspring".
Используемые в песне аккорды можно найти в разделе Как брать аккорды. Аккорды для шестиструнной гитары. Другие песни можно найти на нашем сайте, воспользовавшись алфавитным указателем вверху страницы.


 
Ошибка в тексте? Выделите ошибку и нажмите Ctrl+Enter