ОБОЗНАЧЕНИЯ:
*- повторить 4 раза

intro:
-----|
-----|
-----|  
-----|
|--5--5--5--3--|
-----|
Verse 1:
------------------|
------------------|
------------------| 
-3*--------------|    (0)
|--5--5--5----------3*--4--|
-----3*----------|

------------------|
------------------|
------------------|   (1)
|--3*--3*-------------------|
------3*---------|
-6*--------------|


----------------------------------|
----------------------------------|
----------------------------------|       (2)
----3-3*------------------------|
|--5--5--5-----------------------3-3*--4--|
-------------3-3*---------------|

-------------------------|
-------------------------|
-------------------------|
3--3----3--5----5--7--|          (3)
|--5----5---------------------------|
-------------------------|

Chorus :

(2)
(3)

Verse 2:

--------------------------|
--------------------------|
--------------------------|  (4)
--------------------------|
|--5-5----5--------------3-3-3-4--|
-1----3-3---------------|

-------------------------------------|
-------------------------------------|
-------------------------------------|
|--3----3----3---------------------------------|  (5)
----------------------3--3--3--3--|
-----------3----3------------------|


****************************************************
intro -> Verse 1

(0)
Maybe life is like a ride on a freeway
(0)
Dodging bullets while you´re trying to find your way
(0)
Everyone´s around, but no one does a damn thing
(1)
It brings me down, but I won´t let them 

(2)
If I seem bleak Well you´d be correct
(2)
And if I don´t speak It´s cause I can´t disconnect
(2)
But I won´t be burned by the reflection
(3)
Of the fire in your eyes

CHORUS:
(2)
As you´re staring at the sun (4 раза)
(3)

VERSE 2:
(4)
When I ran I didn´t feel like a runaway
(4)
When I escaped I didn´t feel like I got away
(4)
There´s more to living than only surviving
(5)
Maybe I´m not there, but I´m still trying 

(4)
Though you hear me I don´t think that you relate 
(4)
My will is something That you can´t confiscate
(4)
So forgive me, but I won´t be frustrated
(5)
By destruction in your eyes

CHORUS:
(3)
As you´re staring at the sun (4 раза)


Текст, аккорды и табулатура для песни "Staring At The Sun", исполняет "Offspring".
Используемые в песне аккорды можно найти в разделе Как брать аккорды. Аккорды для шестиструнной гитары. Другие песни можно найти на нашем сайте, воспользовавшись алфавитным указателем вверху страницы.


 
Ошибка в тексте? Выделите ошибку и нажмите Ctrl+Enter