Solo играется аналогично bass.
Да тут вообще solo вялое какое-то!
intro:

bass
---------------------------------------|
---------------------------------------|
---------------------------------------|      
---3--33--3--------------------------|
|--5--55--5--------------3--33--3--------------|
---------------------------3--33--3--|
vesre :
bass
-----------------------------------------------|
-----------------------------------------------|
-----------------------------------------------|       (1)
-------3--3--------3-------------------------|
|--5--5--------5------------------3--3--------3---------|
----------------------------------------3--3--|

-----------------------------------------------------------------------------------------------------|
-----------------------------------------------------------------------------------------------------|
-----------------------------------------------------------------------------------------------------|
-------------------3--3--3--3--3--33--33---------------------------------------------------------|        (2)
|--5--5--5--5--5--55--55------------------------------3--3--3--3--3--33--33-----------------------------|
--------------------------------------------------------------------------3--3--3--3--3--33--33--|

chorus:    (3)

--------------|
--------------| 
--------------|                                                                  
-----3----4--|   (повторить 3 раза) 
|--0--00--00------------|
--------------|

------------------|
------------------|
------------------|
------------------|
|--3--33--33---------------|
----3--33--33--|

маленький проигрыш:

-----|
-----|
-----| (повторить 4 раза)    (4)
-----|
|--5----53--4--|
-----|

проигрыш (aaaaAAAA!!!...)    (5)

----------------------------------------------------|
----------------------------------------------------|
----------------------------------------------------|
----------------------3--33--33------------------|     (повторить 3 раза)
|--5--55--55----3----3------------------------3----3-------|
----------------------------------------------------|

--------------------------------|
--------------------------------|
--------------------------------|
--------------------------------|
|--1------------------------------3----5--|
--------------------------------|

*****************************************************************

VERSE 1:
(1)
I don´t know when it got this way I don´t know how long she´s gonna stay
(1)
Every week it´s the same in her room That´s why I came 
(2)
Here I go, I go again Our rendezvous never seem to end
(2)
I know where I´ll be, I´ll make this confession Back in her bed for another goddamn session 

CHORUS:
(3)
Session!  I´ll never learn. Session! God knows I try. Session! Keep coming back for session And I don´t know why
(3)
Session! I´ll never learn. Session! I´ll never see. Session! Just tell me why these sessions got a hold on me 

маленький проигрыш:
(4)

VERSE 2:
(1)
Some might say it´s a fling For all I know it don´t mean a thing
(1)
Either way I can´t complain Ain´t no strings Guess I got it made 
(2)
Here I go, I go again Our rendezvous never seem to end
(2)
I know where I´ll be I´ll make this confession Back in her bed for another goddamn session 

CHORUS:
(3)
Session!  I´ll never learn. Session! God knows I try. Session! Keep coming back for session And I don´t know why
(3)
Session! I´ll never learn. Session! I´ll never see. Session! Just tell me why these sessions got a hold on me 

маленький проигрыш:
(4)

проигрыш (aaaaAAAA!!!...)
(5) (Декстер там орет что-то...)

FINAL:

(2)
Here I go, I go again Our rendezvous never seem to end
(2)
I know where I´ll be, I´ll make this confession Back in her bed for another goddamn session 

CHORUS:
(3)
Session!  I´ll never learn. Session! God knows I try. Session! Keep coming back for session And I don´t know why
(3)
Session! I´ll never learn. Session! I´ll never see. Session! Just tell me why these sessions got a hold on me 

маленький проигрыш:
(4)


Текст, аккорды и табулатура для песни "Session", исполняет "Offspring".
Используемые в песне аккорды можно найти в разделе Как брать аккорды. Аккорды для шестиструнной гитары. Другие песни можно найти на нашем сайте, воспользовавшись алфавитным указателем вверху страницы.


 
Ошибка в тексте? Выделите ошибку и нажмите Ctrl+Enter