Pretty for a white guy

reapeat 4 times
(distortion)
intro
E:-----------------------------------------------------
B:-----------------------------------------------------
G:-----------------------------------------------------
D:---4--4-4------4-4-9-9-7-----------------------------
A:--2--2-2--4-4-2-2-7-7-5------------------------------
E:---------2-2-----------------------------------------

verse
Clean
reapeat 7 times
E:------------------------------------------------------
B:------------------------------------------------------
G:------------------------------------------------------
D:-x4x4x------------------------------------------------
A:x2x2x-------------------------------------------------
E:------------------------------------------------------

chourus
distortion
reapeat3 times
E:-------------------------------------------------------
B:-------------------------------------------------------
G:-------------------------------------------------------
D:-4--4-10-11-10-11-4--4-10-11-10-11-7-7-7--9-9-9-9-9-9-9
A:2--2-8--9--8--9--2--2-8--9--8--9--5-5-5--7-7-7-7-7-7-7-
E:--------------------------------5-5--------------------


end of chours

E:---------------------------------------------------------
B:---------------------------------------------------------
G:---------------------------------------------------------
D:--7-7-7-7-7-7-9-9-9-9-10-11-10-11-9-9-7-4----------------
A:-5-5-5-5-5-5-7-7-7-7-8--9--8--9--7-7-5-2-----------------
E:---------------------------------------------------------



reapeat intro

reapeat verse

reapeat chourus

distortion
E:---------------------------------------------------------
B:---------------------------------------------------------
G:---------------------------------------------------------
D:--4-4---4-4---4-4---4-4---4-4----------------------------
A:-2-2---2-2---2-2---2-2---2-2-----------------------------
E:---------------------------------------------------------

Reapeat intro

reapeat chorus

ending

E:---------------------------------------------------------
B:---------------------------------------------------------
G:---------------------------------------------------------
D:---------------------------------------------------------
A:-5-5-5-5-5-5-7-7-7-7-5-5-5-5-5-5-7-7-7-7-5-5-5-5-5-5-7-7-7
E:---------------------------------------------------------

E:---------------------------------------------------------
B:---------------------------------------------------------
G:---------------------------------------------------------
D:--7-7-7-7-7-7-9-9-9-9-10-11-10-11-9-9-7-4----------------
A:-5-5-5-5-5-5-7-7-7-7-8--9--8--9--7-7-5-2-----------------
E:---------------------------------------------------------



Текст, аккорды и табулатура для песни "Pretty Fly For A White Guy", исполняет "Offspring".
Используемые в песне аккорды можно найти в разделе Как брать аккорды. Аккорды для шестиструнной гитары. Другие песни можно найти на нашем сайте, воспользовавшись алфавитным указателем вверху страницы.


 
Ошибка в тексте? Выделите ошибку и нажмите Ctrl+Enter