Album: "Conspiracy of One"

# = release note after playing it
 = slide up
/ = slide down

INTRO

Riff
e---------------------------------------------------------------|
B---------------------------------------------------------------|
G---------------------------------------------------------------|
D----------------------7----------------------7-----------------|
A----------------------------------------5#---------5-5---5-5---|
E-----5-5-8-5-5#-----|-----5-5-8-5---5-8-5#---|-----5-5-8-5-5#------|-----5-5-8-5---5-5-----8-----8*|

* = follow to the riff below

PRE-VERSE

Main Riff

e-------------------------------|                ----------|
B-------------------------------|                ----------|
G-------------------------------| 3 times, then  ----------|
D------------7------------------|                -7--------|
A----------------6-5--5----5----|                -----6-5#-|
E----5-5-8-5---5---------8---8--|                |----5-5-8-5---5------|


VERSE (2x)

Main Riff - Palm Muted


e-------------------------------| -------------------------------|
B-------------------------------| -------------------------------|
G-------------------------------| 3 times, then
-----------9-9-9-9-9-9-9-9-9---|
D------------7------------------| |----5---5-5-5-5-5-5---9-9-9-9-9-9-9-9-9---|
A----------------6-5--5----5----| |----5---5-5-5-5-5-5---7-7-7-7-7-7-7-7-7---|
E----5-5-8-5---5---------8---8--| |----3---3-3-3-3-3-3-----------------------|
 pm___________________________|                         pm_________|
|___________|


CHORUS

e-------------------------------| -------------------------------|
B-------------------------------| -------------------------------|
G-----------7--6-7--77--5-7-5---| 3 times, then
-----------9-9-9-9-9-9-9-9-9---|
D----7--10--7--6-7--77--5-7-5---| |----5---5-5-5-5-5-5---9-9-9-9-9-9-9-9-9---|
A----7--10--9--8-5--55--3-5-3---| |----5---5-5-5-5-5-5---7-7-7-7-7-7-7-7-7---|
E----5---8----------------------| |----3---3-3-3-3-3-3-----------------------|
             pm_________|   |___________|

AFTER CHORUS

e--------------------------------| -------------------------|
B--------------------------------| -------------------------|
G-------------7-7-7--12-12--12--| 3 times, then
|-12#------12------12-12-12-12-1213-|
D---7#--7-----7-7-7--12-12--12--| |-12#-12#--12--12#-12-12-12-12-1213-|
(corrected)
A---7#--7-----5-5-5--10-10--10--| |-10#-12#--10--12#-10-10-10-10-1011-|
E---5#--5------------------------| |-----10#------10#-------------------|


BRIGDE

(intro)
e---------------------------------------------------------------|
B---------------------------------------------------------------|
G---------------------------------------------------------------|
D----------------------7----------------------7-----------------|
A----------------------------------------5#---------5-5---5-5---|
E-----5-5-8-5-5#-----|-----5-5-8-5---5-8-5#---|-----5-5-8-5-5#------|-----5-5-8-5---5-5-----8-----8*|

then...

e-------------------------------|
B-------------------------------|
G-------------------------------| 4 times
D------------7------------------|
A----------------6-5--5----5----|
E----5-5-8-5---5---------8---8--|
  pm|_________________________|

then...


e-------------------------------| -----------------------|
B-------------------------------| -----------------------|
G-------------------------------| 3 times, then
-----------9/-....9/---|
D------------7------------------|  (corrected)
|----5---5-5-5-5-5-5---9/-....9/---|
A----------------6-5--5----5----| |----5---5-5-5-5-5-5---7/-....7/---|
E----5-5-8-5---5---------8---8--| |----3---3-3-3-3-3-3---------------|
                                                        pm_________|



3rd CHORUS

e-------------------------------| -------------------------------|
B-------------------------------| -------------------------------|
G-----------7--6-7--77--5-7-5---| 3 times, then
-----------9-9-9-9-9-9-9-9-9---|
D----7--10--7--6-7--77--5-7-5---| |----5---5-5-5-5-5-5---9-9-9-9-9-9-9-9-9---|
A----7--10--9--8-5--55--3-5-3---| |----5---5-5-5-5-5-5---7-7-7-7-7-7-7-7-7---|
E----5---8----------------------| |----3---3-3-3-3-3-3-----------------------|
             pm_________|   |___________|

AFTER 3rd CHORUS

e---------------------------------------------------------------------------------|
B---------------------------------------------------------------------------------|
G-------------7-7-7--12-12--12--| 3 times, then
|-12#-----12--------------------------12#-----12#-----12-12-12-12-1213-|
D---7#--7-----7-7-7--12-12--12--||-12#-12#-12-12#-12-12-12-12-12-12-12-12#-12#-12#-12#-12-12-12-12-1213-|
(corrected)
A---7#--7-----5-5-5--10-10--10--||-10#-12#-10-12#-12-12-12-12-12-12-12-10#-12#-10#-12#-10-10-10-10-1011-|
E---5#--5------------------------||-----10#----10#-10-10-10-10-10-10-10-----10#-----10#-------------------|
        pm|___________________|

then...

e----------------|
B----------------|
G----------------|
D-------7--------| ---> Final Note (let ring)
A-------7--------|
E-------5--------|


Ja o4en´ izvinajus´ za to 4to na english u menja prosto net russkogo shrifta!!


Текст, аккорды и табулатура для песни "Original Prankster", исполняет "Offspring".
Используемые в песне аккорды можно найти в разделе Как брать аккорды. Аккорды для шестиструнной гитары. Другие песни можно найти на нашем сайте, воспользовавшись алфавитным указателем вверху страницы.


 
Ошибка в тексте? Выделите ошибку и нажмите Ctrl+Enter