NOTHING FROM SOMETHING
BY THE OFFSPRING OFF OF INGNITION
                                 
Technical Stuff
X=PICK SCRAPE
=SLIDE OUT
(  )=COUNTINUATION  NOT STRUMMED

( INTRO )    PLAY 3 TIMES
---------------------------------------------
---------------------------------------------
-9--9-9--X--7-7-7-7--X------------- 9-9-9-9-
-9--9-9--X--7-7-7-7--X--9--9-9--X--9-9-9-9-
-7--7-7--X--5-5-5-5--X--9--9-9--X--7-7-7-7-
-7-----------------------7--7-7--X----------
PLAY ONCE
------------------------------------
------------------------------------
------------------------------------
-10------(10)--9-9-9--X--12-12-12-
-10------(10)--9-9-9--X--12-12-12-
- 8------ ( 8 )--7-7-7--X--10-10-10-
NOW FOLLOW THROUGH THE REST OF THE TAB AN DO AS INDICATED
----------------------------------------------
----------------------------------------------
----------------------------------------------
-14-14-14--12-12-12-12--7-7-7--14-14-14-14-
-14-14-14--12-12-12-12--7-7-7--14-14-14-14-
-12-12-12--10-10-10-10--5-5-5--12-12-12-12-

----------------------------------------------
----------------------------------------------
----------------------------------------------
-14-14-14--10-10-10- 12-12-12--14-14-14-14-
-14-14-14--10-10-10- 12-12-12--14-14-14-14-
-12-12-12---8--8--8--10-10-10--12-12-12-12-
THINGS ARE COMING DOWN ON ME THEY NEVER SEEM TO LET IT BE
----------------------------------------------
----------------------------------------------
----------------------------------------------
-14-14-14--12-12-12-12--7-7-7--14-14-14-14-
-14-14-14--12-12-12-12--7-7-7--14-14-14-14-
-12-12-12--10-10-10-10--5-5-5--12-12-12-12-
SEEM LIKE EVERYTHING I SAY IT JUST STARTS ANOTHER FIGHT
----------------------------------------------
----------------------------------------------
----------------------------------------------
-14-14-14--10-10-10- 12-12-12--14-14-14-14-
-14-14-14--10-10-10- 12-12-12--14-14-14-14-
-12-12-12---8--8--8--10-10-10--12-12-12-12-
THE PRESSURE'S BUILDING UP IN SIDE  I GOTTA LET IT OUT TO NIGHT
----------------------------------------------
----------------------------------------------
----------------------------------------------
-14-14-14--12-12-12-12--7-7-7--14-14-14-14-
-14-14-14--12-12-12-12--7-7-7--14-14-14-14-
-12-12-12--10-10-10-10--5-5-5--12-12-12-12-
SHATTERED GLASS WILL CURE MY ILLS AND MAKE ME FELL ALRIGHT
----------------------------------------------
----------------------------------------------
----------------------------------------------
-14-14-14--10-10-10- 12-12-12--14-14-14-14-
-14-14-14--10-10-10- 12-12-12--14-14-14-14-
-12-12-12---8--8--8--10-10-10--12-12-12-12-


GONNA              BREAK        IT  
-------------------------------------------------
-------------------------------------------------
-----------12X11X12-----------------------------
-12-12-12-12X11X12--12---12-12-12----9-9-9-9-
-12-12-12-10X 9 X10--12---12-12-12----9-9-9-9-
-10-10-10------------10---10-10-10----7-7-7-7-
AND     NEVER    STOP    RUNNING   YEAH
                                MAKING
-------------------------------------------------
-------------------------------------------------
-----------12X11X12-----------------------------
-12-12-12-12X11X12--12---12-12-12----9-9-9-9-
-12-12-12-10X 9 X10--12---12-12-12----9-9-9-9-
-10-10-10------------10---10-10-10----7-7-7-7-
                       NOTHING     FROM    SOMETHING                   MAKING
-------------------------------------------------
-------------------------------------------------
-----------12X11X12-----------------------------
-12-12-12-12X11X12--12---12-12-12----9-9-9-9-
-12-12-12-10X 9 X10--12---12-12-12----9-9-9-9-
-10-10-10------------10---10-10-10----7-7-7-7-
  NOTHING     FROM    SOMETHING
-------------------------------------------------
-------------------------------------------------
-----------12X11X12-----------------------------
-12-12-12-12X11X12--12---12-12-12----9-9-9-9-
-12-12-12-10X 9 X10--12---12-12-12----9-9-9-9-
-10-10-10------------10---10-10-10----7-7-7-7-
NOW PLAY THIS 3 TIMES
---------------------------------------------
---------------------------------------------
-9--9-9--X--7-7-7-7--X------------- 9-9-9-9-
-9--9-9--X--7-7-7-7--X--9--9-9--X--9-9-9-9-
-7--7-7--X--5-5-5-5--X--9--9-9--X--7-7-7-7-
-7-----------------------7--7-7--X----------
AND PLAY THIS ONCE
------------------------------------
------------------------------------
------------------------------------
-10------(10)--9-9-9--X--12-12-12-
-10------(10)--9-9-9--X--12-12-12-
- 8------ ( 8 )--7-7-7--X--10-10-10-
CUT ME FROM THE LION'S SHARE  IT'S  MINDLESS BUT I DONT CARE 
----------------------------------------------
----------------------------------------------
----------------------------------------------
-14-14-14--12-12-12-12--7-7-7--14-14-14-14-
-14-14-14--12-12-12-12--7-7-7--14-14-14-14-
-12-12-12--10-10-10-10--5-5-5--12-12-12-12-
CAUSE NO MATTER WHAT I SAW I'M IN A NOTHER FIGHT 
----------------------------------------------
----------------------------------------------
----------------------------------------------
-14-14-14--10-10-10- 12-12-12--14-14-14-14-
-14-14-14--10-10-10- 12-12-12--14-14-14-14-
-12-12-12---8--8--8--10-10-10--12-12-12-12-
TAKE MORE **** I'VE HAD ENOUGH TONIGHT I'M GONNA  RIP IT UP 
----------------------------------------------
----------------------------------------------
----------------------------------------------
-14-14-14--12-12-12-12--7-7-7--14-14-14-14-
-14-14-14--12-12-12-12--7-7-7--14-14-14-14-
-12-12-12--10-10-10-10--5-5-5--12-12-12-12-
BROKEN WINDOWS CURE MY ILLS AND MAKE ME FEEL ALRIGHT
----------------------------------------------
----------------------------------------------
----------------------------------------------
-14-14-14--10-10-10- 12-12-12--14-14-14-14-
-14-14-14--10-10-10- 12-12-12--14-14-14-14-
-12-12-12---8--8--8--10-10-10--12-12-12-12-
GONNA       BREAK        IT  
-------------------------------------------------
-------------------------------------------------
-----------12X11X12-----------------------------
-12-12-12-12X11X12--12---12-12-12----9-9-9-9-
-12-12-12-10X 9 X10--12---12-12-12----9-9-9-9-
-10-10-10------------10---10-10-10----7-7-7-7-
AND     NEVER    STOP    RUNNING   YEAH
                                MAKING
-------------------------------------------------
-------------------------------------------------
-----------12X11X12-----------------------------
-12-12-12-12X11X12--12---12-12-12----9-9-9-9-
-12-12-12-10X 9 X10--12---12-12-12----9-9-9-9-
-10-10-10------------10---10-10-10----7-7-7-7-
   NOTHING     FROM    SOMETHING                   MAKING
-------------------------------------------------
-------------------------------------------------
-----------12X11X12-----------------------------
-12-12-12-12X11X12--12---12-12-12----9-9-9-9-
-12-12-12-10X 9 X10--12---12-12-12----9-9-9-9-
-10-10-10------------10---10-10-10----7-7-7-7-
                          NOTHING     FROM    SOMETHING    yeah
-------------------------------------------------
-------------------------------------------------
-----------12X11X12-----------------------------
-12-12-12-12X11X12--12---12-12-12----9-9-9-9-
-12-12-12-10X 9 X10--12---12-12-12----9-9-9-9-
-10-10-10------------10---10-10-10----7-7-7-7-
PLAY THIS 3 TIMES WITH A REAL HEAVY PALM MUTE PICKING THE HIGHER STRINGS
  YOU'LL GET IT
----------------------------------------------
----------------------------------------------
----------------------------------------------
-14-14-14--12-12-12-12--7-7-7--14-14-14-14-
-14-14-14--12-12-12-12--7-7-7--14-14-14-14-
-12-12-12--10-10-10-10--5-5-5--12-12-12-12-

----------------------------------------------
----------------------------------------------
----------------------------------------------
-14-14-14--10-10-10- 12-12-12--14-14-14-14-
-14-14-14--10-10-10- 12-12-12--14-14-14-14-
-12-12-12---8--8--8--10-10-10--12-12-12-12-
NOW PLAY THIS LOUD 2 TIMES 
----------------------------------------------
----------------------------------------------
----------------------------------------------
-14-14-14--12-12-12-12--7-7-7--14-14-14-14-
-14-14-14--12-12-12-12--7-7-7--14-14-14-14-
-12-12-12--10-10-10-10--5-5-5--12-12-12-12-

----------------------------------------------
----------------------------------------------
----------------------------------------------
-14-14-14--10-10-10- 12-12-12--14-14-14-14-
-14-14-14--10-10-10- 12-12-12--14-14-14-14-
-12-12-12---8--8--8--10-10-10--12-12-12-12-
GONNA    BREAK        IT  
-------------------------------------------------
-------------------------------------------------
-----------12X11X12-----------------------------
-12-12-12-12X11X12--12---12-12-12----9-9-9-9-
-12-12-12-10X 9 X10--12---12-12-12----9-9-9-9-
-10-10-10------------10---10-10-10----7-7-7-7-
AND     NEVER    STOP    RUNNING   YEAH
                                MAKING
-------------------------------------------------
-------------------------------------------------
-----------12X11X12-----------------------------
-12-12-12-12X11X12--12---12-12-12----9-9-9-9-
-12-12-12-10X 9 X10--12---12-12-12----9-9-9-9-
-10-10-10------------10---10-10-10----7-7-7-7-
   NOTHING     FROM    SOMETHING                   MAKING
-------------------------------------------------
-------------------------------------------------
-----------12X11X12-----------------------------
-12-12-12-12X11X12--12---12-12-12----9-9-9-9-
-12-12-12-10X 9 X10--12---12-12-12----9-9-9-9-
-10-10-10------------10---10-10-10----7-7-7-7-
          NOTHING     FROM    SOMETHING
-------------------------------------------------
-------------------------------------------------
-----------12X11X12-----------------------------
-12-12-12-12X11X12--12---12-12-12----9-9-9-9-
-12-12-12-10X 9 X10--12---12-12-12----9-9-9-9-
-10-10-10------------10---10-10-10----7-7-7-7-
NOW END IT OFF STRUMMING  THIS CHORD HARD  ---

                                                                          ---

                                                                          ---

                                                                          -7-

                                                                          -7-

                                                                          -5-


Текст, аккорды и табулатура для песни "Nothing From Something", исполняет "Offspring".
Используемые в песне аккорды можно найти в разделе Как брать аккорды. Аккорды для шестиструнной гитары. Другие песни можно найти на нашем сайте, воспользовавшись алфавитным указателем вверху страницы.


 
Ошибка в тексте? Выделите ошибку и нажмите Ctrl+Enter