Intro:   X6
e-----------------------------------|
B-----------------------------------|
G|---9--9-9--7-7--9-9--12-12-12--11--11-11-11---|
D|---9--9-9--7-7--9-9--12-12-12--11--11-11-11---|
A|---7--7-7--5-5--7-7--10-10-10---9---9--9--9---|
E-----------------------------------|
He's a pistol grip 
And a lightning rod hammer step 
He always busts his knuckles 
When he's wrenchin' up his shit 

Chorus:  *=play 8X
e--------------------|
B|----*---*---*------------------|
G|---9---5---7--(9-9--5-5--7-7)--|
D|---9---5---7--(9-9--5-5--7-7)--|
A|---7---3---5--(7-7--3-3--5-5)--|
E--------------------|
He just a Killboy Powerhead...yeah 

Verse2:   X3
e--------------------------------------------------|
B--------------------------------------------------|
G----------------------------------------------9---|
D|--(7-9-9--7-9-9--7-9-9-12-9)--7-9-9--7-9-9--7-9-9-12-9---9---|
A|--(7-9-9--7-9-9--7-9-9-12-9)--7-9-9--7-9-9--7-9-9-12-9---7---|
E|--(5-7-7--5-7-7--5-7-7-10-7)--5-7-7--5-7-7--5-7-7-10-7-------|
You know I saw his woman 
She was writing his name in blood 
You know I saw his woman 
Hard as a rock 
She said she was his baby 
Who looked just like the Hoover Dam 
You know I saw his woman 
Hard as a rock 


Chorus:
He just a Killboy Powerhead...yeah

Bridge:   X4                           
e--------------------------|
B--------------------------|
G--------------------------|
D|---8-10-10--8-10-10--8-10-10-13-10---|
A|---8-10-10--8-10-10--8-10-10-13-10---|
E|---6--8--8--6--8--8--6--8--8-11--8---|

Bridge2:    *=play 8X       
e---------------------|
B---------------------|
G|----*---*---*-------------------|
D|--10---6---8--10-10--6-6--8-8---|
A|--10---6---8--10-10--6-6--8-8---|
E|---8---4---6---8--8--4-4--6-6---|


Intro: X4
He's a pistol grip 
And a lightning rod hammer step 
He always busts his knuckles 
When he's wrenchin' up his shit 

Chorus:  X3
He just a Killboy Powerhead...yeah

Outro:
e---------------|
B---------------|
G---------------|
D|--7-9-9--7-9-9--7-9-9-12-9| X4
A|--7-9-9--7-9-9--7-9-9-12-9|
E|--5-7-7--5-7-7--5-7-7-10-7|

e-----------------------|
B-----------------------|
G|--9--9-9--7-7--9-9--12-12-12-11---|
D|--9--9-9--7-7--9-9--12-12-12-11---|
A|--7--7-7--5-5--7-7--10-10-10--9---|
E-----------------------|


Текст, аккорды и табулатура для песни "Killboy Powerhead", исполняет "Offspring".
Используемые в песне аккорды можно найти в разделе Как брать аккорды. Аккорды для шестиструнной гитары. Другие песни можно найти на нашем сайте, воспользовавшись алфавитным указателем вверху страницы.


 
Ошибка в тексте? Выделите ошибку и нажмите Ctrl+Enter